MIlo na milo musical

Discussion in 'Hindi Guitar Tabs - Submit or Request' started by Scorpion King, Jun 24, 2008.

  1. Scorpion King

    Scorpion King New Member

    hey guyz ;

    Can anyone please tab this musical part of milo na milo 4r me please?
    I have uploaded the musical part here
    Download - http://www.zshare.net/audio/1412482280f935b6/
    please tab it in an easy manner as I am just a beginner
    thanks a lot guyz
     
  2. ernav

    ernav Member

  3. Scorpion King

    Scorpion King New Member

    but dude i need the tabs for that part only
    can someone please tab it
    thanxxxx
     
  4. ernav

    ernav Member

    mere khyal se aapne jo tune download kiya hai, uski tune milo na milo wali line hi hai.....try this...


    Milo na Milo
    4|----d-D-d-cd
    Mein milne aaunga

    4|----ddDfDd
    Kaho na kaho
    4|----c-dcc
    3|------b
    Kaho na kaho
    4|----cdcc
    3|-----b
    Mein kehta jaunga

    4|----c-c-dDdc
    Suno na suno
    4|---c
    3|---AAaA
    Suno na suno
    4|-----c
    3|----AAaA
    Mein to sunaunga

    4|-|---cdc
    3|-|--AAA
    Dil kehta hai kya
    4|-|----Dd
    3|-|--a-AaA


    Mera dil yeh tumse kehe

    3|----g-aaaaaa
    Koi dorri kab tak sahe
    3|----aAAAAAA
    Yeh fasla kab tak rahe

    4|--cccccc
    3|--A
    Kareeb aaa
    4|--dcfd
    Dekho na dekho

    4|-|--g-g-f-----c---d-------------------------
    Meri en aankhon mein

    4|-|--g-g-g----f-f----a-g--------------------
    Khawabon ki sau tasveerein hai s s s s s
    4|--ffDdcdDdfgfDfDd
    4|--c


    Yaadon ki kuch zanjeerein hai
    4|--ffDdcdDdfgfDfDd
    4|--c
     
  5. Scorpion King

    Scorpion King New Member

    yaar i need the tabz
    not the chordz
    jst a beginner:D:D
     
  6. problem child

    problem child New Member

    These are not chords but western tabs . I have already asked a Pro. tabber
    to provide me the Intro the whole song contains the same music as Intro
    hopefully he will post it soon .
     
  7. problem child

    problem child New Member

    Scorpion King tell me the exact part where this music is used
    ( Intro , 1st music , 2nd music etc. ) so I can myself try to play it .
     
  8. Scorpion King

    Scorpion King New Member

  9. problem child

    problem child New Member

    Ok I will try to create problems :oops: Try to tab it .
     
  10. Scorpion King

    Scorpion King New Member

    :p:p
    thnx a lot dude
    make dem real easy am just a beginner:D:D
    try using only the e string if possible:D:D
     
  11. Scorpion King

    Scorpion King New Member

    any updatez????
     
  12. p_k

    p_k New Member

    Wait buddy . I think you want the ROBOTIC Voice portion . I played the song
    posted by Problem Child and know one thing . " If You play intro by E string
    only then unable to play the song for sure or U have to use 17th fret etc. "
    so first decide what do you want to do .
     
  13. Scorpion King

    Scorpion King New Member

  14. p_k

    p_k New Member

    But scorpion what about the 17th fret situation if anyone tab the music only
    using E string ?
     
  15. Scorpion King

    Scorpion King New Member

    i don't mind you using any strings
    I just sed TRY using the e-string only
    and 17th fret is no probz
     
  16. Swami

    Swami New Member

    Yes please . Some1 post the Intro .
     
  17. gama123

    gama123 New Member


    well try this,.i hav even updated it on my post" MILO NA MILO EASY TABS!!!"


    MILO NA MILO MAIN MILNE AUNGA
    e-------------------------------------
    B---7-8-7--7----7-7-8/9--8-7--------
    G---------9---------------------------
    D-------------------------------------
    A-------------------------------------
    E-------------------------------------


    KAHO NA KAHO MAIN KEHTA JAUNGA
    e--------------------------------------
    B-----7--------------------------------
    G---9--9-7-9--9-9--11-12-11-9--------
    D--------------------------------------
    A--------------------------------------
    E--------------------------------------

    SUNO NA SUNO MAIN TO SUNAUNGA
    e---------------------------------------
    B---------------------------------------
    G---7-9-7-6-7---7-7-9--9/11-9-7-------
    D---------------------------------------
    A---------------------------------------
    E---------------------------------------

    DIL KEHTA HAI KYA
    e----------------------------------------
    B---------------5------------------------
    G---6--6-6-7/9--------------------------
    D----------------------------------------
    A----------------------------------------
    E----------------------------------------
     

Share This Page