mi2 tab and strum part

Discussion in 'Hindi Guitar Tabs - Submit or Request' started by boxer, Apr 1, 2005.

  1. boxer

    boxer New Member

    Hello Guyzz ...boxer Here ..this Is My First Time Im Sending My Tabs In English Guitar Tabs
    This Tab Is For Mi2
    Intro

    -------------------------------------------------
    -------------------------------------------------
    -------------------------------------------------
    ------------------------------------------------- Play It Fast
    ---------------10-12-10--------------10-11-------
    ---12-12-12-12----------12-12-12-12--------------



    Strum Part....but Strum It Fast To Make The Theme Gud

    --------x-x-x---x-x--x-x-x--x-x----------------
    --------x-x-x---x-x--x-x-x--x-x----------------
    --------x-x-x---x-x--x-x-x--x-x----------------
    --------7-7-7---5-7--7-7-7--5-6----------------
    --------7-7-7---3-5--7-7-7--5-6----------------
    --------5-5-5---x-x--5-5-5--3-4----------------
     
  2. __DiStUrBeD__

    __DiStUrBeD__ _(¯`·._ÇrãÇKhËäD_.·´¯)_

    This is Hindi section buddy..
     

Share This Page