Mere rang me rangne wali - ORIGINAL TABS from maine pyar kiya

Discussion in 'Hindi Guitar Tabs - Submit or Request' started by Invincible, Jul 21, 2005.

  1. Invincible

    Invincible New Member

    Mere rang me rangne wali--> Maine pyar kiya.
    ===============================================
    Enjoy this romantic number. These are original and perfect tabs im sure.


    e----------------------------------------
    b-0-0-0-8-8---8-10-12-10-8-------
    g----------------------------------------
    d----------------------------------------
    a----------------------------------------
    E----------------------------------------
    mere rang meh rangne wali


    e----------------------------------------
    b-0-0-7-7-7---5-7-8-7-5------------
    g----------------------------------------
    d----------------------------------------
    a----------------------------------------
    E----------------------------------------
    pari ho ya ho pario ki rani



    e----------------------------------------
    b-----5-5---4-5-7-5-4----------------
    g-0-0-----------------------------------
    d----------------------------------------
    a----------------------------------------
    E----------------------------------------
    yah ho meri prem kahani



    e------------8--7-5-3-7-------757------
    b-5-5--5-7-8--------------7-5-----7-5-
    g------------------------------------------
    d------------------------------------------
    a------------------------------------------
    E------------------------------------------
    mere sawalo ka jawab do, do naa




    Interlude :

    e-15-12-14-12--15-12-14-12---15-12-14-12-10-8-7
    b--------------------------------------------------------------
    g--------------------------------------------------------------
    d--------------------------------------------------------------
    a--------------------------------------------------------------
    E--------------------------------------------------------------


    e---------------------------------------------------------------
    b-15-12-13-12--15-12-13-12---15-12-13-12-10-8-7
    g--------------------------------------------------------------
    d--------------------------------------------------------------
    a--------------------------------------------------------------
    E--------------------------------------------------------------


    Whats Welcome :
    1) Comments and suggestions
    2) Points

    :beer: :beer: :beer: :beer: :beer:
     
  2. ssslayer

    ssslayer Banned

    hey dude ...

    nice ...

    u heard "Final Countdown" by Europe ...
    it is the same song but i guess around 1/2 scale higher ...
     
  3. sisu

    sisu New Member

    hey the tabs are really cool...but m not able to get the interlude part......its soundin really weird...dont know why?
     
  4. mehul

    mehul New Member

    cool men.. nice work... i all wayz 4got to try and tab this song.. its like you reminded me....nice work dude.. it sounds cool..!!!!

    Keep Rocking
     
  5. Ankur_Scorpio

    Ankur_Scorpio New Member

    U Rock!

    Now is this coincidence or wht??....i logged in today thinking i will request this song again...for like the third time....and here it is!!!!!!

    :beer:

    Donating 25 percent of my points....and tht would be 50!! :cool: sorry dont have too many...but gr8 job!!
     
  6. kamal_007

    kamal_007 New Member

    nice work buddy. i liked the tabs much but as said theres prob with interlude


    cool buddy keep it up. c ya
     
  7. hey buddy,,,,the tabs are nice,,,,but i think it has a lil problem + it gets a lil difficult to get to the lower frets,,,,

    i suggest you try this
    http://www.indianguitartabs.com/showthread.php?t=37027

    its really good....

    pple try both and tell which 1 is better??:think:
     

Share This Page