Mayank-Nupur Tune TABS Mile Jab hum tum

Discussion in 'Hindi Guitar Tabs - Submit or Request' started by dhvanisoni, May 27, 2009.

  1. dhvanisoni

    dhvanisoni New Member

    Mayank-Nupur Tune TABS Mile Jab hum tum AUDIO posted

    Hello, I m Dhvani and am new to this site....and I have been learning guitar for a few months now... and I like playing tabs more than chords for some reason....anyway can someone help me by providing Mile jab hum tum Mayank nupur tune...here is the video tht has the tune... tune starts at 5:58 http://www.youtube.com/watch?v=lysdQacXWpY


    Here is the recorded audio
    http://www.zshare.net/audio/56017176cf3247a1/
     
  2. jazzbox

    jazzbox His X Ln C 1000CC

    the video is not yet available there ??
     
  3. jazzbox

    jazzbox His X Ln C 1000CC

    its much better u record that specific tune then ask for tabs .
     
  4. mehul_ghl@

    mehul_ghl@ New Member

    heloo

    i have that MJHT tune not that mayur nupur tune

    u want that????

    and r u from ahmedabad?
     
  5. jazzbox

    jazzbox His X Ln C 1000CC

    its better u submit and give link instead of askin dude
     
  6. manan.jadhav

    manan.jadhav New Member

    i want that MJHT tune not that mayur nupur tune

    u have that????
     
  7. dhvanisoni

    dhvanisoni New Member

    I found the theme song tabs a while ago in some thread...they might not sound accurate...but anyway...it was something like..

    Hulchul ho dil mein, Miley Jab hum tum
    E- 0------7----5-5----------7-8--8-5--7-5-7-5

    I love mayank-mupur tune a lot...it sounds so beautiful...so wanted to try that on my guitar...but I am not that great at tabbing song yet...
     
  8. dhvanisoni

    dhvanisoni New Member

    No, I am from Canada. Though a lot of my relatives live in Ahmedabad...infact, I bought my guitar from Ahmd in dec when I visited India
     
  9. mehul_ghl@

    mehul_ghl@ New Member

    tune : - mile jab hum tun

    miley jab hum tum tune :::::-----

    E-----------------------------

    B------------------------------

    G-----2--0---2---3--3-3-3--0--3--0--2--

    D--0-------------------------

    A-------------------------------

    E------------------------------





    E-----------------------------

    B--------------------------------------------1--

    G--------2--0---2---3--3-3-3--0--3--0----

    D-0-0-------------------------

    A-------------------------------

    E------------------------------

    i think correction needed in last note
     
  10. Rajrocks

    Rajrocks The Cool-Headed Mod

    Hey Dhvani,

    I have tabbed the Mayank Nupur melody in parts...As you can clearly hear ...there are two major instruments played...(rather more than that)...a guitar with a contant riff and then a piano riff which is beautiful....

    Guitar riff goes like this throught the song...

    G-------------------5---7---5----7-----------------------

    D-----------5h7------------------------------------------

    and the piano riff is as follows

    E-----10--10--10--10---8h10--10-10---8-8--10--10--10---12--12--13--10--10----- x 2

    B------------------------------------------------------------------

    Play it twice....its the same tab but different plucking pattern...

    And then the next part is

    E--------------------8------------------------------------8--13-----------------------

    B-------6--5--6--------5--6---------5-5-6---5--6-------------6---8h10--10--11---8h10----------

    G----------------------------------------------------------------------------------------------------------------5h7-----10--9--7h9p7----------------



    I will post this entire melody after recording...nJOY!!!!
     

Share This Page