maula mere (anwar) song tabs..

Discussion in 'Hindi Guitar Tabs - Submit or Request' started by whyrrus, Mar 23, 2007.

  1. whyrrus

    whyrrus New Member

    maula mere (anwar) song tabs (now the complete song )

    maula mere maula mere
    E----------------------|
    B----------------------|
    G-2-2-2-5-4-4-4-5---|
    D----------------------|
    A----------------------|
    E----------------------|


    aankhen teri - kitni haseen
    E--------------------|--------------------|
    B--------------------|--------------------|
    G--9-9-7---5-9----|---9-9-7---5-9------|
    D--------------------|--------------------|
    A--------------------|--------------------|
    E--------------------|--------------------|

    ke in-ka ashiq - main ban gaya hoon
    E---------------------|------------------------|
    B---------------------|------------------------|
    G-7--7-7-9---5-4---|-7---7-7-----9---5-4---|
    D---------------------|------------------------|
    A---------------------|------------------------|
    E---------------------|------------------------|

    mujhko basa le inme tu
    E-------------------------------|
    B-------------------------------|
    G-7-7----9--5--4--4-4-4--5---|
    D-------------------------------|
    A-------------------------------|
    E-------------------------------|


    update

    mujhse se ye har ghadi mera dil kahe
    E--------------------------------------------|
    B--------------------------------------------|
    G-4-4----4--4-----4-5-----2-4--2-0-0--0-0--|
    D--------------------------------------------|
    A--------------------------------------------|
    E--------------------------------------------|


    tum hi ho iski arzoo
    E------------------------------|
    B------------------------------|
    G-4---4--4--4-5----5-5-9-7-7-|
    D------------------------------|
    A------------------------------|
    E------------------------------|




    the solo has been tabbed here.
    http://www.indianguitartabs.com/showthread.php?t=26511&highlight=maula+mere

    and the chords are listed in more than one thread.

    pls suggest changes, if any.

    a noob effort this. so .......

    CIAO
     
  2. ayadd_showman

    ayadd_showman New Member

    hmmm... looks lyke u tried to work hard on it.... but still i will try it out as soon as get my guitar string bak
     
  3. Shashank007

    Shashank007 Extremist

    Try to include more strings. Its easier to play and sounds more good.
     

Share This Page