Maa - Taare Zameen Par - Guitar Lead - TABS

Discussion in 'Hindi Guitar Tabs - Submit or Request' started by Bandbaaja, Jan 11, 2008.

  1. Bandbaaja

    Bandbaaja Pronounced Band Baaaa Ja

    Hi All

    I am not posting the chords because Sheer Melody has already posted EXACT CHORDS in the thread below:

    Please refer to this for chords:

    http://www.indianguitartabs.com/showthread.php?t=32694
    Check for the post by user named SheerMelody

    GUITAR LEAD:

    / = Slide
    p = Pull
    h = Hammer
    b = Bend

    Line 1

    E ----------------------------
    B -8/10-8---------------------
    G -------------5-7----5/7--5--
    D ---------5h7-----7----------
    A ----------------------------
    E ----------------------------

    Line 2 (Same as line 1 except a small downslide from 8th fret which i have indicated with ^^^^)

    E --------------------------------
    B -8/10-8^^^^^--------------------
    G -----------------5-7----5/7--5--
    D -------------5h7-----7----------
    A --------------------------------
    E --------------------------------

    Line 3

    E -------------------------------
    B -------5---6--5-6-6/8-8/5-5-6--
    G -----5---7---------------------
    D -5h7---------------------------
    A -------------------------------
    E -------------------------------

    Line 4

    E -----------------------8----8/10-10b12-8--
    B -------5---6--5-6-8/10---10---------------
    G -----5---7--------------------------------
    D -5h7--------------------------------------
    A ------------------------------------------
    E ------------------------------------------

    Bang the chords Am...G...C... after the lead ends

    Cheers
    Poopsie
     
  2. satan_4_infinit

    satan_4_infinit New Member

    good post..nice tabs...thnx
     
  3. subheet

    subheet Member

    excellent wrk as usual......thanx
     
  4. smack

    smack New Member

    perfect as always... was tryin real hard to get the last line... wasnt soundin exact.... now sounds perfect ..... thanks a tonne
     
  5. deb7sk

    deb7sk New Member

    Thanks!

    Awesome post as usual! Thanks a lot BandBaaja...
     
  6. palabhi_5058

    palabhi_5058 New Member

    thanks dude
     
  7. bubka

    bubka New Member

    I think line 3 sounds better with a hammer from 6 to 8 and a pull back.
    Thanks for line 4 - it is now sounding exact.
     
  8. paati

    paati New Member

    http://www.youtube.com/watch?v=_6_8wFG1Ofc
     
  9. Bandbaaja

    Bandbaaja Pronounced Band Baaaa Ja

    yeah thats Jayswami for you
    but he doesnt play my tabs
    he plays it differently, though the notes are right

    i still need to check with the BOSS Mr. Ehsaan himself on the positions

    will revert back soon
     
  10. Bandbaaja

    Bandbaaja Pronounced Band Baaaa Ja

    I've checked with Ehsaan (what a great guy)
    He plays in same position as i have tabbed.
     
  11. zubin_deep

    zubin_deep New Member

    the last three sweet chords at the end of the solo, this is what i do,

    |---8----7---3--|
    |---10---8---5--|
    |---12---7---7--|
    |----------------|
    |----------------|
    |----------------|
     
  12. shilpa_deswal

    shilpa_deswal New Member

    Excellent...
     
  13. shilpa_deswal

    shilpa_deswal New Member

    Hey ....ths was superb.......
     
  14. Bandbaaja

    Bandbaaja Pronounced Band Baaaa Ja

    thats cool boss
     
  15. Bandbaaja

    Bandbaaja Pronounced Band Baaaa Ja

    thanks!!! cheers
     
  16. rakesh_sargam

    rakesh_sargam New Member

    hey man i guess u put the wrong link coz E7 is definately used in antara...
    (I am ur fan...so I was bit dissapointed by that)

    but like always ur awsome with ur stuff...
     
  17. rakesh_sargam

    rakesh_sargam New Member

    oops ur right....but thread was started by somebody else.....my apologies..
     
  18. Bandbaaja

    Bandbaaja Pronounced Band Baaaa Ja

    yeah i specifically mentioned to check on Sheermelody's post on that thread

    :) cheers
     
  19. rahul_verma466

    rahul_verma466 New Member

    thnx gr8 work:))))
     
  20. GRK

    GRK New Member

    hi all

    i am new to guitar , please drict me some good books for starting practice
     

Share This Page