LP- In the End tabs

Discussion in 'English Guitar Tabs - Submit or Request' started by jayswami, Dec 13, 2004.

  1. jayswami

    jayswami Blue J

    song is in Eb, so tune down the guitar half a step. its also a drop D tuing.

    DbAbDbGbBbEb



    the harmonics r the coolest in the song

    Eb----------------------------------(12)------------------
    Bb--------(7)----(5)---------(7)--------------------------
    Gb---(5)----------------(5)-------------------------------
    Db--------------------------------------------------------
    Ab--------------------------------------------------------
    Db--------------------------------------------------------

    here is a clip of how it should sound..
    http://eecs.cwru.edu/~jayen/IGT/lp in the end harm.mp3
    hope this helps.


    intro + verse Chords:

    Ebm Db Db Db

    piano notes:

    (Eb Bb Bb Gb F F F FGb)x3
    Eb Bb Bb Gb F

    chorus is Ebm Gb Db B
    Ebm Gb Db B Bb

    use power chords in the chorus like:

    Eb--------------------------------------------------------
    Bb--------------------------------------------------------
    Gb------------------5------------------------5---4----------
    Db--2----5----0----5---0----2----5----0----5---4----------
    Ab--2----5----0----3---0----2----5----0----3---2----------
    Db--2----5----0--------0----2----5----0-------------------

    Note: Drop D power chords are a bit different (and easier to play)

    here is a clip: for an arrangement recorded by me:
    http://eecs.cwru.edu/~jayen/IGT/lp in the end.mp3
     
  2. jayswami

    jayswami Blue J

    bump. as there have been other posts for the song recently.
     

Share This Page