Lots of guitar songs with audio+chords+tabs continuously updated

Discussion in 'Hindi Guitar Tabs - Submit or Request' started by strings, Sep 20, 2005.

  1. strings

    strings New Member

    I will be posting audios here for the IGTians to understand the strumming pattern and calrity of chords......

    request recording in here.... i will try the song and try to post it in here as soon as i get chords.........
    here are the audio list

    1st page
    1) tune mujhe pehchana nahi (intro)- raju chacha
    2) neele neele ambar----just a small audio for strumming pattern
    3) jeene ke ishare mil gaye---- phir milenge (chords pattern)
    4) intro piece for kab tak jawani --- mujse shaadi karongi

    2nd page
    5) intro piece for lakshya--- agar mein kahoo
    6) middle guitar interlude (excellent piece ever played in bollywood) for
    lakshya--- agar mein kahoo
    7) ek hasina thi--- tu tu hai wahi-- intro+chords+tabs..
    8) lucky ali's -- sanam--- intro chords+main chords
    9) JAL aadat -- full song -- chords + interludes
     
    faiqrock likes this.
  2. strings

    strings New Member

    to start with i am posting

    tune mujhe pehchana nahi (intro)- raju chacha

    here is the intro audio pattern for this song.........

    (0.16mb low quality audio)

    http://www.coolgoose.com/music/song.php?id=206283

    the chords i use are in this pattern

    -------------------------2--------------------------2--
    ------1----------3------3----------1-------3-----3--
    ------2----------2------2----------2-------2-----2--
    ------2----------2-----------------2-------2--------
    -0-----------------------------------------------------
    --------------------------------------------------------
    A Am Asus D Am Asus D
     
  3. Ankur_Scorpio

    Ankur_Scorpio New Member

    NICE MAN!!

    sounds really good...waiting for more.
     
  4. strings

    strings New Member

    second i wil post another excellent song

    neele neele ambar----just a small audio for strumming pattern

    (0.5mb low sound quality)

    http://www.coolgoose.com/music/song.php?id=206287

    I hope everyone knows the chord for this song....
    Dm---C----a#----a
     
  5. strings

    strings New Member

    third one it is another excellent guitar song.....

    jeene ke ishare mil gaye---- phir milenge (chords pattern)

    (0.6mb low sound quality)

    http://www.coolgoose.com/music/song.php?id=206286

    hords for the intro lead this one Is played after the beat starts:

    The A and B chords are played in the higher notes that os
    A== 577655: B== 799877

    E F#m A B (lead in the back ground)

    Now for the next part

    Jeene ke ishare mil gaye
    E F#m G#M A
     
  6. akkyy21

    akkyy21 #%@!$&

    Play disco dancer
     
  7. strings

    strings New Member

    dowloading ther song will post it in some time from now
     
  8. akkyy21

    akkyy21 #%@!$&

    Try to sing or hum with the tunes man,... else cant figure out.
     
  9. strings

    strings New Member

    wow.... nice song...... but how do u want me to post the song which has techno in it....
    its not playes in guitar dude.......
    if u want the techno chords then it is Cm all over the song.....
    tell me some song which can be recorded......
     
  10. vini

    vini Repeat Offender

    akky u havent found ur disco dancer tabs yet? ;-)
     
  11. akkyy21

    akkyy21 #%@!$&

    I hvnt found them man,.... come on yah again.
     
  12. prog_man_0101

    prog_man_0101 Dain Bramaged

    Strings man........U rock dude.
    Don't stop now.........Keep postin more..............they have really helped me and I know they u would have definitely helped others 2.
    Great post..........I request other top guitarists on this site to continue this thread by postin as much songs as u can play......
    Reps 2 u man...........Keep up the good work.
     
  13. prog_man_0101

    prog_man_0101 Dain Bramaged

    Only one prob man...............I would sincerely request u 2 play the song for atleast until first para gets completed...........
    That would help us even more.......
    Consider this as just another humble request from one of the many newbies of this site.............I know u will not let us down...........plz man.
     
  14. strings

    strings New Member

    thx prog man ....will take ur advice!!
     
  15. strings

    strings New Member

    fourth audio
    intro piece for
    kab tak jawani --- mujse shaadi karongi

    here is the link...
    (0.4mb)
    http://web.music.coolgoose.com/music/song.php?id=207276


    tune F instead of E

    F ---0s2-----2----0s4----4------2----2----0s2---2-----0s2----2---0-----0

    B ----3-------3----3-------3------3----3----3------3-----3-------3---3-----3

    I have tuned the 1st string to F instead of Eas it almost impossible to play with standard tuning.........
    __________________
     
  16. strings

    strings New Member

    fifth audio
    intro piece for
    lakshya--- agar mein kahoo

    here is the link...
    (0.4mb)
    http://web.music.coolgoose.com/music/song.php?id=207277

    this is a very good guitar piece played on a Dm chord.....

    E -----------------------------------------5------------5-------------------
    B ----------------------6----------------------6---8-------6-------------
    G ----7-7----5----7------7----5---7-------------------------7--5---7
     
  17. strings

    strings New Member

    sixth audio
    middle guitar interlude (excellent piece ever played in bollywood) for
    lakshya--- agar mein kahoo

    here is the link
    (0.6mb)
    http://web.music.coolgoose.com/music/song.php?id=207278

    D -----------------------3
    A ---1S3----5-5---3------5-----1S3----5-5---3---5----------
    E ----------------------------------------------------------5--3s5--

    Twice
    then

    B ----------------6-------------6--------------8-6-------------------
    G ----7-5----7------7-5----7-----7-5----7-------------------------
    D ---------7---------------7-------------7----------------------------


    B ----------------6---------------------------8-6-------------------
    G ----7-5----7------7-5----7--5---7-5----5----------------------
    D ---------7---------------7-------------7--------------------------
    __________________
     
  18. strings

    strings New Member

    seventh audio...
    tu tu hai wahi.... ekhasina thi++
    complete song...
    (1.8 mb) low sound quality

    here is the link...

    http://www.coolgoose.com/music/song.php?id=208606

    there r few mistakes in middle.... plz dont mind that

    here r the chords and tabs...
    TU TU HAI WAHI

    INTRO

    A -------9-10-----9-10------10-9-9-10-9-7-
    E -10-10------8-8------7-7----------------

    8 TIMES

    HUMMING PART

    E -----------7-5-------------5-------------------------
    B -5-7-8-7-5-----8-7-5-3---7----3-5-7-8-8S10-8-7-8-5---
    em......am..................d....d.......c.........d.........em

    TU TU HAI WAHI

    E -----------7--
    B -5-7-8-7-5---
    em....am

    DIL NE JISE APNA KAHA

    E -5-----------------5--
    B --8-7-5-3--5-7-5-3---
    d............................g

    TU hai kaha mein hun yahan

    E-3-1-3------------5---
    B ------5--5-7-5-3-----
    c-----------------------d

    AB TO TERE BIN HAI SAZA

    E -------------5-5-4--
    B -8-7-5-4-5-8--------
    b------------b7-----------e

    MIL JAYE IS TARAH

    E -5-5-5-5-7-8-----------
    B -----------------------
    c-------------------d

    do lehren jis tarah

    E ---------5-7-------
    B -8-8-8-8------------
    g------------------------c

    fir honge naa juda

    E --------------5---------
    B --7-5-7-8-7-5-----------
    em-------------am

    ha yeh vaada raha

    E -----------------------
    B -8-7-3-7-7h5-----------
    d------------------em
     
  19. strings

    strings New Member

    mod why cant i edit the first post of this thread.... and i also need to change the name of this thread.... any suggestions....
     
  20. .:SpY_GaMe:.

    .:SpY_GaMe:. New Member

    ...................................
     

Share This Page