Loot liya : Sunday Easy song for guitar beginners

Discussion in 'Hindi Guitar Tabs - Submit or Request' started by VisOrchestraGrp, Mar 8, 2008.

  1. VisOrchestraGrp

    VisOrchestraGrp New Member

    Movie - SUNDAY

    ****************** SINGLE STRING TABS *********************

    INTRO : -

    B |--4-4-6-7-6-6--4-4-6-7-6-6--4-4-6-7-6--------------------------------

    B |--7-9-7--6-7-6--4--------------------------------------------------------

    B |--4-6-4-7--4-6-4-7--4-6-4-7--------------------------------------------

    B |--7-9-7--6-7-6--4--------------------------------------------------------


    ......Goray....goray....ye....gaal....rabba.......rabba....kamaal
    B |--4-3-4----4-7------4-----3------4-3-4-------4-7------4-3--------------


    ......Goray....goray....ye....gaal....rabba.......rabba....kamaal
    B |--4-3-4----4-7------4-----3------4-3-4-------4-7------4-3--------------


    ......Toone....loot.....liya....loot.....liya.....loot....liya
    B |--3-4------6-6----6-4----7-7----7-7-----6-6----6-6---------------------


    ......Toone....loot.....liya....loot.....liya.....loot....liya
    B |--3-4------6-6----6-4----7-7----7-7-----6-6----6-6---------------------


    ......Maine....kya....kiya....kya....kiya....kya....kiya
    B |--3-4------6------6-4----7------7-7----6-------6-6----------------------


    ......Maine....kya....kiya....kya....kiya....kya....kiya
    B |--3-4------6------6-4----7------7-7----6-------6-6----------------------


    ......Toone....loot.....liya....loot.....liya.....loot....liya
    B |--3-4------6-6----6-4----7-7----7-7-----6-6----6-6---------------------


    ......Hai....lu lu lu....lu lu lu....lu lu lu.....lu lu lu....loot....liya
    B |--4------4-4-4----3-3-3----2-2-2------3-3-3----4-4----4-4-------------


    ......Hai....lu lu lu....lu lu lu....lu lu lu.....lu lu lu....loot....liya
    B |--4------4-4-4----3-3-3----2-2-2------3-3-3----4-4----4-4-------------


    STANZA :-

    ......Hai....sarphiri.....kyun....tu....mili......tauba....dilli....ki.....kudi
    B |--6------6-4-4-----6--------6----4-4------6-6-----4-4----6----4-4------


    ......Abhi....mein....khadi....abhi....gir....padi
    B |--6-6-----6-------4-4-----6-6----6-----4-4------------------------------


    ......Hawaaon....mein....main....to....udi
    B |--6-6-6--------4-------4-------6----4-4---------------------------------


    ......O.....manchali....o....chulbuli....yu....na....macha....gadbadi
    B |--6----6-4-4-------6----6-4-4------6----6------4-4------6-4-4----------


    ......Goray....goray....ye....gaal....rabba.......rabba....kamaal
    B |--4-3-4----4-7------4-----3------4-3-4-------4-7------4-3--------------


    ......Toone....loot.....liya....loot.....liya.....loot....liya
    B |--3-4------6-6----6-4----7-7----7-7-----6-6----6-6---------------------


    ......Re....baba....kya....kiya....kya....kiya....kya....kiya
    B |--4-----3-4-----6------6-4----7------7-7-----6------6-6-----------------
     
  2. Dipankar Shaw

    Dipankar Shaw New Member

    please send me the cords of om shanti om
     
  3. VisOrchestraGrp

    VisOrchestraGrp New Member

    New or Old Song ?

    Do you want chord of om shanti om song from movie KARZ.

    Then it is submitted earlier maybe on PAGE 6 or 7 of the chord section you
    can reach there by entering word vischords in search .

    While if you are looking for chord of new song Om shanti om from Om shanti
    om movie then you have to wait as the main person is not here .
     
  4. VisOrchestraGrp

    VisOrchestraGrp New Member

    Movie - SUNDAY

    ** You are able to play song much easier if you use two strings .

    INTRO : -

    B |--4-4-6-7-6-6--4-4-6-7-6-6--4-4-6-7-6--------------------------------


    B |--7-9-7--6-7-6--4--------------------------------------------------------


    B |--4-6------7--------6--------7---------6--------7--7-9-7-6-7-6--------
    G |--------8------8---------8--------8--------8-----------------------8-----



    ......Goray....goray....ye....gaal....rabba....... rabba....kamaal
    B |----------------7------------------------------------7--------------
    G |--8-7-8----8---------8-----7------8-7-8-------8--------8-7-------


    ......Goray....goray....ye....gaal....rabba....... rabba....kamaal
    B |----------------7------------------------------------7--------------
    G |--8-7-8----8---------8-----7------8-7-8-------8--------8-7-------


    ......Toone....loot.....liya.....loot.....liya..... loot....liya
    B |------------6-6----6-------7-7----7-7------6-6----6-6---------------
    G |--7-8-----------------8------------------------------------------------


    ......Toone....loot.....liya.....loot.....liya..... loot....liya
    B |------------6-6----6-------7-7----7-7------6-6----6-6---------------
    G |--7-8-----------------8------------------------------------------------


    ......Maine....kya....kiya....kya....kiya....kya.. ..kiya
    B |------------6-----6-------7------7-7----6-------6-6-------------------
    G |--7-8----------------8-------------------------------------------------


    ......Maine....kya....kiya....kya....kiya....kya.. ..kiya
    B |------------6-----6-------7------7-7----6-------6-6-------------------
    G |--7-8----------------8-------------------------------------------------


    ......Toone....loot.....liya.....loot.....liya..... loot....liya
    B |------------6-6----6-------7-7----7-7------6-6----6-6---------------
    G |--7-8-----------------8------------------------------------------------


    ......Hai....lu lu lu....lu lu lu....lu lu lu.....lu lu lu....loot....liya
    G |--8------8-8-8----7-7-7----6-6-6------7-7-7----8-8----8-8-----------


    ......Hai....lu lu lu....lu lu lu....lu lu lu.....lu lu lu....loot....liya
    G |--8------8-8-8----7-7-7----6-6-6------7-7-7----8-8----8-8-----------




    STANZA :-

    ......Hai....sarphiri.....kyun....tu....mili...... tauba....dilli....ki.....kudi
    B |--6------6-4-4-----6--------6----4-4------6-6-----4-4----6----4-4------


    ......Abhi....mein....khadi....abhi....gir....padi
    B |--6-6-----6-------4-4-----6-6----6-----4-4------------------------------


    ......Hawaaon....mein....main....to....udi
    B |--6-6-6--------4-------4-------6----4-4---------------------------------


    ......O.....manchali....o....chulbuli....yu....na. ...macha....gadbadi
    B |--6----6-4-4-------6----6-4-4------6----6------4-4------6-----------
    G |----------------------------------------------------------------8-8-----
     

Share This Page