Loosu penne intro

Discussion in 'Tamil Guitar Tabs - Submit or Request' started by vinoth_007, Nov 16, 2006.

  1. vinoth_007

    vinoth_007 New Member

    Here's my interpretation of the intro...the scale maybe wrong coz i don't have the song at hand... jus move up n down accordingly...plz comment!

    e--------------------13~------------------------
    B------15-13-15-----------13---13-------13-
    G-12-----------------------------------15------

    e--------------------13~---15~---13---------------
    B------15-13-15------------------------16--15----
    G-12-------------------------------------------------

    e--------------------13~------------------------
    B------15-13-15-----------13---13-------13-
    G-12-----------------------------------15------

    e--------------------------------------------
    B----13----15~------13--------------------
    G-15--------------------15--14------12~-----
    D----------------------------------15-----

    Thx!
     
  2. j_necromancer

    j_necromancer New Member

    nice dude!!! sounds good!
     
  3. suresh_007

    suresh_007 New Member

  4. sathish lion

    sathish lion New Member

    hi frnds see tiz ... tabs its the intro of the song starring .... .
    7---9---7---9---12----9----7---5---7----

    7----9----7---9---12---14---12--10---9--

    7---9--7--9--12--9---7---5---7---

    5---7---9---7--5---3---b5----e3

    watch tiz .. for video for the tune ... any mistake correct me .. dr frns ..

    loosu penne guitar tabs by sathish - YouTube


    ensoy ...

    by

    sathish lion ..................
     

Share This Page