Loosu penne - Chords pls

Discussion in 'Tamil Guitar Tabs - Submit or Request' started by pearlmaharajan, Jun 21, 2013.

  1. pearlmaharajan

    pearlmaharajan New Member

    Can some1 share the chords of LOOSU PENNE... LOOSU PENNE... from the movie.. Vallavan.
    NIce work by Yuvan..

    somebody help pls... !!!
     
  2. jimihndrx

    jimihndrx Guitar Hero

    Here you go Pearl..

    Piano Intro
    [2times]-

    E|--1-3---------1-3---------1-3------------------------
    B|------4-6---------4-6---------4-6---8-9-11---9-8----
    G|------------------------------------------------------
    D|------------------------------------------------------
    A|------------------------------------------------------
    E|------------------------------------------------------

    Guitar Intro-

    E|----8-6-8---11--6----4-6--------8-6-8---11--13--11-9-8--
    B|--6---------------------------6---------------------------
    G|----------------------------------------------------------
    D|----------------------------------------------------------
    A|----------------------------------------------------------
    E|----------------------------------------------------------


    E|----8-6-8---11--6----4-6----4-6---8---6-4-3-----------
    B|--6-------------------------------------------4-6-------
    G|--------------------------------------------------------
    D|--------------------------------------------------------
    A|--------------------------------------------------------
    E|--------------------------------------------------------


    Chords:
    {(Fm)Loose Penne Loose Penne (Fm7)Loose Pen(Fm)ne
    (Fm)Loose Paiyan Unmelathan (Fm7)Loosea Sutha(Fm)ran}-[2 times]

    {(Fm)Kaathal Varatha (A#m)Kaathal Vara(Fm)tha
    (Fm)En Mel Un Mel Unaku (D#)Kaathal vara(Fm)tha}-[2 times]

    (Fm)Kaalaimuthal (C#)Maalaivarai
    (D#)dhinamum Naanum Unna Dhanae (G#m)Nenachu Vazha(Fm)raen
    (Fm)Kangal Moodi Iravu (C#)Thoongum Bothae Yeh
    (D#)Bedroom Fanum Kizhae Vanthu (G#m)Enna Ezhupu(Fm)thae
    (Fm)Unnae (G#m)Nanaika Sollu(Fm)thae

    Loose Penne part repeat

    (Fm)Thanimaiyai Theduthae Ithayamum Oduthae
    (Fm7)Ennai Naanae Ennai Naanae
    (F)Thaedi Thaedi (Fm)Parkiraen
    (F)Thaedi Thaedi (Fm)Parkiraen(Parkiraen Parkiraen)

    {(Fm)Unnakae Ènnai (Bb)Køduka (Fm)Ninaithu
    (Fm)Manasai Naan Anupi(D#)naen (C#)Rømba Aa(Fm)saiyai}-[2times]

    (Fm)Vaalipøla (D#)Paateyu(Cm)tha Ènaku (C#)Theriyala(Fm)yae
    (Fm)Unna Pathi (D#)Paadama(Cm)than Iruka (C#)Mudiyala(Fm)yae

    (Fm)Ènna (Bb)Naanae (D#)Thiti Thiti Parthaen
    (C#)Manasa Thiruthavil(Cm)la Ènmanasa (D#)Unnavitu Maaravil(Fm)la
    rest is same
    jimihndrx
     
  3. rajeshguitar

    rajeshguitar New Member

    Nice chords, Jimi. Thanks.
     
  4. pearlmaharajan

    pearlmaharajan New Member

    thanks jimi.... u made my day... andha loose ponna ok panniduren! !!
     
  5. jimihndrx

    jimihndrx Guitar Hero

    What is "Loose Pennae"?Can u pls tell.
     
  6. pearlmaharajan

    pearlmaharajan New Member

    mad gal... its like calling ur lover with lots of love

     
  7. jimihndrx

    jimihndrx Guitar Hero

    Oh thanks Pearl for the meaning..cool song anywayz.
     
  8. SATHYA167

    SATHYA167 New Member

    Nice chords Jimi..... Sathya
     
  9. vs.suresh

    vs.suresh New Member

    Chords looks nice Jimi...

    Thanks a lot..

    Keep posting..
     
  10. jimihndrx

    jimihndrx Guitar Hero

    u r welcome..
     
  11. jimihndrx

    jimihndrx Guitar Hero

    Thanks Sathya.
     
  12. jimihndrx

    jimihndrx Guitar Hero

    u r welcome Suresh.
     

Share This Page