Lolita - Engaeyum Kadhal CHORDS

Discussion in 'Tamil Guitar Tabs - Submit or Request' started by roentgen, Jun 27, 2011.

  1. roentgen

    roentgen Member

    Loli(Bm)ta Haa Loli(Em)ta
    Un (A)Karai Illaatha Kangal Vetti (Bm)Thalluthey....

    (Bm)Ponmanjal Manjal Penne Engae Selgi(F#m)raai
    (Bm)Minnanjal Polae Vanthu Sendru Kolgiraai.....

    Stanza

    (Bm)Kottum Bothey Mazhai, Kuttaal Vittaal Pizhai,
    Vaaisey Vaanam Maatri (F#m)Paarkiraai.....
    (same as aove)
    Pengal Ellaam Chedi, Pachai Kullum Kodi,
    Endrae Tappu Tappai Solgiraai

    Naan (Bm)Naal Pakkam Neer Soozhtha (Em)Theevallava
    Yaar (F#m7)Vanthaalum Saaigindra (Bm)Thaer Alla(F#)va
    Naan (Bm)Alai Dhoora Adai Kaakum (Em)Kadal Allavaa
    En (Em)Aagaaya Mathilkooda (F#sus4)Palavenni(F#)laa..(lolita)

    Rajesh
     
  2. sparkysha

    sparkysha New Member

    can u pls give tab for this song
     
  3. roentgen

    roentgen Member

    Lolita Haa Lolita Un Karai Illaatha Kangal Vetti Thalluthey
    A|--5--4--2----5--2-------2------------5-5--4--4--5-2--
    E|-------------------0-------0-0-0-0-0--------------------

    Ponmanjal Manjal Penne Engae Selgiraai
    D|-------------------------------------4--
    A|--5--5--5--5--4--4--2--2--2----2--4-----

    Minnanjal Polae Vanthu Sendru Kolgiraai
    A|--5--5--5--5--4--4--2--2--2----2-0-4--

    Stanza

    Kottum Bothey Mazhai, Kuttaal Vittaal Pizhai, Vaaisey Vaanam Maatri Paarkiraai..
    D|-----------------------------------------------------------------------4--------
    A|--2--2--0--2--4--2----2--2--0--2--4--2----5--5--4--4--2--2--0----0-0-----

    Naan Naal Pakkam Neer Soozhtha Theevallava Yaar Vanthaalum Saaigindra Thaer Allava
    D|-------------------------------------------------------------------4--
    A|--5--5--------------5--4--5----------4--4--5--------5--4--2--4--2-----
    E|--------0--2--2--0-----------0--0-------------0--0--------------------

    Naan Alai Dhoora Adai Kaakum Kadal Allavaa En Aagaaya Mathilkooda Palavennilaa..
    A|--5--5--------------5--4--5----------2-----5--2-----5--2---2--4--4--2-4--
    E|--------0--2--2--0-----------0--0-------0--------0-----------------------

    Rajesh
     
  4. sripadh

    sripadh New Member

    can u post the strumming pattern for this song?
     

Share This Page