Linkin park -In the end chords

Discussion in 'English Guitar Tabs - Submit or Request' started by rahul_njs, Nov 29, 2004.

  1. rahul_njs

    rahul_njs New Member

    Song:In the End
    Album:Hybid theory


    Hi, I am Rahul ;)
    doin my 1st year @ NIT Jamshedpur
    This is for all u linkin park fans..... :rockon:

    Chords:

    Em
    G
    D
    C
    Instructions:play the powerchords with a keybord playing the lead.
    Harmonics would be nice if played along...


    Figure the lead out yourself, lead starts in E in the 4th string


    Harmonics courtesy :beer: "Jay"------Thanks man!!!

    Eb----------------------------------(12)------------------
    Bb--------(7)----(5)---------(7)--------------------------
    Gb---(5)----------------(5)-------------------------------
    Db--------------------------------------------------------
    Ab--------------------------------------------------------
    Db--------------------------------------------------------

    Intro lead Chords:(piano)

    Em
    D
    C
    D


    It starts with
    Em......................................................//All power chords
    one thing I don't know why
    D
    It doesn't even matter how hard you try keep that in mind
    C
    I designed this rhyme
    D
    To explain in due time
    All I know
    Em
    Time is a valuable thing
    D
    Watch it fly by as the pendulum swings
    C
    Watch it count down to the end of the day
    D
    The clock ticks life away
    It's so unreal
    Didn't look out below
    Watch the time go right out the window
    Trying to hold on, but didn't even know
    Wasted it all just to watch you go
    I kept everything inside and even though I tried, it all fell apart
    What it meant to me will eventually be a memory of a time when

    I tried so
    E
    hard And got so
    G
    far But in the
    D
    end It doesn't even
    C
    matter
    I had to fall repeat above chords
    To lose it all
    But in the end
    It doesn't even matter


    Same pattern follows

    One thing, I don't know why
    It doesn’t even matter how hard you try, keep that in mind
    I designed this rhyme, to explain in due time
    I tried so hard
    In spite of the way you were mocking me
    Acting like I was part of your property
    Remembering all the times you fought with me
    I'm surprised it got so (far)
    Things aren't the way they were before
    You wouldn't even recognize me anymore
    Not that you knew me back then
    But it all comes back to me (in the end)
    You kept everything inside and even though I tried, it all fell apart
    What it meant to me will eventually be a memory of a time when I

    Chorus (Keyboard should be loud)

    I’ve put my
    Em..........D
    trust in you
    C..........................D
    Pushed as far as I can go
    ..............Em
    And for all this
    .................C...........................D...D
    There's only one thing you should know (2x) Chorus


    Any suggestions or comments are welcome.....
     
  2. mayank

    mayank New Member

    Not bad at all. Cheers !!!
     
  3. axlrose250

    axlrose250 New Member

    wats the strumming pattern
     
  4. thnx will try them n give my opinion
     
  5. crideep12886

    crideep12886 New Member

    hi man --- its good but

    hi

    the linkin park tabs are good, but its not on the right scale its on the e#minor scale and chord transfigurations are fine--- but for a beginner yea they are good. excellent good job
     
  6. jayswami

    jayswami Blue J

    well the chords and Scale should be in Ebm, but u tune your guitar half a step down and play it in Em. Its actually Drop D tuned half a step down which lp uses for the song.

    DbAbDbGbBbEb

    So in that respect, the given chords are accurate.

    the harmonics r the coolest in the song

    Eb----------------------------------(12)------------------
    Bb--------(7)----(5)---------(7)--------------------------
    Gb---(5)----------------(5)-------------------------------
    Db--------------------------------------------------------
    Ab--------------------------------------------------------
    Db--------------------------------------------------------

    here is a clip of how it should sound..
    http://eecs.cwru.edu/~jayen/IGT/lp in the end harm.mp3
    hope this helps.

    Also I think Rahul might have made a typo for the intro chords, they should be
    Chords:

    Em
    D
    C
    D
    Like the rest of the song.

    Jay
     
  7. momin04

    momin04 New Member

    how we should play the power chords
     
  8. rahul_njs

    rahul_njs New Member

    Hi,
    you suggestions were good and indeed right. This was meant for a begineer.
    momin try referring some book or you can download this guitar pro soft ware which also teaches you power chords. Site: www.guitar-pro.com(note :downloading demo option would be below)

    Rock on,
    Rahul
     
  9. guitarboy_anand

    guitarboy_anand MAN WHO SOLD THE WORLD

    looks cool will see l8r
     
  10. Ali Kay

    Ali Kay New Member

    hey do you have the tabs for this
     
  11. junoonist

    junoonist New Member

    Sounds GooD !
     
  12. garyhigher

    garyhigher New Member

    Hello

    Hello Guys

    I am trying to learn guitar so whenever I look for chords of any song mostly I see this format can some one please explain me what does the below mentioned format states??

    Eb----------------------------------(12)------------------
    Bb--------(7)----(5)---------(7)--------------------------
    Gb---(5)----------------(5)-------------------------------
    Db--------------------------------------------------------
    Ab--------------------------------------------------------
    Db--------------------------------------------------------
     
  13. sk_pavel420

    sk_pavel420 New Member

    hellow all
     
  14. sk_pavel420

    sk_pavel420 New Member

    here is the intro of in the end

    E----------------------------
    B----------------------------
    G-----4--4------------------
    D-2---------5--4-4-4-4--5-- PLAY IT 4X
    A---------------------------
    E---------------------------
     

Share This Page