Leave out all the rest-Twilight

Discussion in 'English Guitar Tabs - Submit or Request' started by holyboy1989, Aug 12, 2009.

  1. holyboy1989

    holyboy1989 New Member

    Can anyone give me the notations of Leave out all the rest by Linkin Park from Twilight??
    Please
     
  2. s-rani

    s-rani New Member

    der were so many tabs and chords of dis song..so instead of postin dem all here...click on the link..
    http://tinyurl.com/q89ay7

    DONT WORRY...its Spam free...
     
  3. gig zeplin

    gig zeplin New Member

    Correction i think!

    Boy that song is from Minutes to midnight album i think!
     
  4. gig zeplin

    gig zeplin New Member

    anyway here's tab u asked for.


    Leave Out All the Rest
    intro
    |---------------------------------|
    |---------------------------------|
    |---------5~----------------------|
    |-7~------5~------3~------0~------|
    |-7~------3~------3~------0~------|
    |-7~--------------3~------0~------| x2
    Bridge
    |-----------------------------------------|
    |-----------------------------------------|
    |-----------------------------------------|
    |-0~------3~-----7~------10~------3~------|
    |-0~------3~-----7~------10~------3~------|
    |-0~------3~-----7~------10~------3~------|
    Lead (16th notes, plays whenever rhythm plays)
    |---------------------------------|
    |---------------------------------|
    |-5-5-5-5-5-5-5-5-5-5-5-5-5-5-5-5-|
    |---------------------------------|
    |---------------------------------|
    |---------------------------------|
     
  5. gig zeplin

    gig zeplin New Member

    Tabssss

    anyway here's tab u asked for.


    Leave Out All the Rest
    intro
    |---------------------------------|
    |---------------------------------|
    |---------5~----------------------|
    |-7~------5~------3~------0~------|
    |-7~------3~------3~------0~------|
    |-7~--------------3~------0~------|
    Play it 2 times
    Bridge
    |-----------------------------------------|
    |-----------------------------------------|
    |-----------------------------------------|
    |-0~------3~-----7~------10~------3~------|
    |-0~------3~-----7~------10~------3~------|
    |-0~------3~-----7~------10~------3~------|
    Lead (16th notes, plays whenever rhythm plays)
    |---------------------------------|
    |---------------------------------|
    |-5-5-5-5-5-5-5-5-5-5-5-5-5-5-5-5-|
    |---------------------------------|
    |---------------------------------|
    |---------------------------------|
     
  6. s-rani

    s-rani New Member

Share This Page