Learn Eric Clapton's Tears in Heaven

Discussion in 'English Guitar Tabs - Submit or Request' started by jozko, Sep 21, 2005.

  1. jozko

    jozko Banned

    Guitar God Sir Eric Clapton's - Tears in heaven as I play. Meant for
    beginners (like me ) to get started. Beginners tab given after this


    E----------------------------------------------
    B----------2h3p2-------------------------------
    G--------2-------2-----------------------------
    D----------------------------------------------
    A-----0----------------------------------------
    E--0h2-----------------------------------------



    E----------------------------------------------
    B---5------5---2-------------------------------
    G---4------4---2-------------------------------
    D----------------------------------------------
    A----------------------------------------------
    E---4--4---4---2-------------------------------


    E----------------------------------------------
    B------2------2------2-------------------------
    G------2------2------2-------------------------
    D----------------------------------------------
    A----------------------------------------------
    E--2---2--2---0---0--0-------------------------



    E----------------------------------------------
    B----3-----3-----3-----------------------------
    G----2-----2-----2-----------------------------
    D----------------------------------------------
    A----------------------------------------------
    E-0--2--2--2--2--0-----------------------------

    E----------------------------------------------
    B--3--2-----2-----2-----2----------------------
    G--1--2-----2-----2-----2----------------------
    D----------------------------------------------
    A-----0--0--0--0--0--0--0--------2-------------
    E--0------------------------0h2----------------


    Now tabs for beginners follows

    Left hand fretting and right hand finger-picking assumed. Finger positions
    shown in square [] brackets before each note in the order [left hand][right hand]

    Left hand fingers (small letters)
    -----------------
    t = thumb
    i = index
    m = middle
    r = ring
    p = pinky
    x = no finger used


    Right hand fingers (Capital letters)
    ------------------
    T = thumb
    I = index
    M = middle
    R = ring
    P = pinky
    x = no finger used

    h = hammer-on
    p = pull-off
    s = slide

    Code:
    part 1

    E------------------------------------------------------------------------

    B-------------------------------------[r][R]2--[p][x]h3-[r][x]p2---------

    G-----------------------------[m][M]2----------------------------[m][M]2-

    D------------------------------------------------------------------------

    A-------------------[x]0----------------------------------------------

    E-[x][T]0--[t][x]h2------------------------------------------------------


    part 2

    E------------------------------------------------------------------------

    B--[r][R]5-----------[r][R]5---[r][R]2-----------------------------------

    G--[m][M]4-----------[m][M]4---[m][M]2-----------------------------------

    D------------------------------------------------------------------------

    A------------------------------------------------------------------------

    E--[t][T]4--[t][T]4--[t][T]4---[t][T]2-----------------------------------


    part 3

    E------------------------------------------------------------------------

    B------------[r][R]2------------[r][R]2------------[r][R]2---------------

    G------------[m][M]2------------[m][M]2------------[m][M]2---------------

    D------------------------------------------------------------------------

    A------------------------------------------------------------------------

    E--[t][T]2---[t][T]2--[t][T]2---[x][T]0---[x][T]0--[x][T]0---------------


    part 4

    E------------------------------------------------------------------------

    B------------[r][R]3------------[r][R]3------------[r][R]3---------------

    G------------[m][M]2------------[m][M]2------------[m][M]2---------------

    D------------------------------------------------------------------------

    A------------------------------------------------------------------------

    E--[x][T]0---[t][T]2--[t][T]2---[t][T]2---[x][T]2--[x][T]0---------------


    part 5


    E-------------------------------------------------------------------------------

    B-[r][R]3--[r][R]2---------------[r][R]2------------[r][R]2------------[r][R]2--

    G-1--[m][M]2---------------[m][M]2------------[m][M]2------------[m][M]2--

    D-------------------------------------------------------------------------------

    A----------[x][T]0------[x][T]0--[x][T]0---[x][T]0--[x][T]0---[x][T]0--[x][T]0--

    E-[x][T]0-----------------------------------------------------------------------

    REPEAT till u are comfortable playing.


    video follows. video divided showing finger positions and also how to play parts.

    you can pause the video to see fingering i used. videos of left and right hand included

    Audio follows for the entire section.

    If you find these useful or have questions, please leave your remarks.

    If i get response i will post further parts and more lessons. experts please correct mistakes

    Don't give up till u can play smoothly. thx all

    audio - http://rapidshare.de/files/5010043/tears_intro.mp3.html
    left hand video - http://rapidshare.de/files/5009616/tears_left.WMV.html
    right hand video - http://rapidshare.de/files/5009977/tears_right.WMV.html
    10
     
  2. bjr

    bjr Lady of the Evening

    did you by any chance post this on Jayswami's site or copy it from there?



    Not a problem if you did...just curious.
     
  3. jozko

    jozko Banned

    yes i posted there first. link to that wasn't allowed here, so posted here
     
  4. jekyll

    jekyll Banned

    Hey thanks Jozko

    That was instructional and helpful.
    Can you also post a simple chord format of the song with the lyrics also?
     
  5. bjr

    bjr Lady of the Evening

    look below all the posts, jekyll. Right at the bottom you'll see links to similar threads and most of them will have what you're looking for.
     
  6. jekyll

    jekyll Banned

    Oops, silly me

    thanx bjr, I actually never scrolled down to the bottom of the page.
     
  7. bjr

    bjr Lady of the Evening

    psh, no problems...glad I could help.
     
  8. bhaskarrao009

    bhaskarrao009 New Member

    --------------------------------------------------------------------------------

    Hey Guys,

    Here R he chords for simple playing for those who cant pick---


    A ---------- E------------F#m
    Would you know my name

    D-----------A--------E
    If I saw u in heaven


    A ---------- E--------F#m
    Would it be the same .


    D-----------A--------E
    If I saw u in heaven


    F#m----------- C#m
    I must be strong


    Em---------F#m
    And carry on

    Bm-------------------E7sus E7--------------------A
    Cause I know I don't belong here in heaven



    Bridge:
    C--------------G---------Am -D---------------------G---------D---Em----D--- G
    Time can bring you down TIME CAN BEND UR KNEES ...

    C--------G-------------- Am------D----------------G---------D------- E
    time can break your heart Have u begging plaease......begging please


    pls add reps

    have fun
    Bhaskar
     
  9. y2j2005

    y2j2005 New Member

    hi can anyone tell me About E A D G B E with little detail................. thnx
     

Share This Page