Lead solo of Ehsas by Atif

Discussion in 'Pakistani Guitar Tabs - Submit or Request' started by Love_Demise, Aug 23, 2004.

  1. Love_Demise

    Love_Demise New Member

    Hey Guys
    i have work on Ehasas lead solo , u guys plz these tabs and let me know thks

    /= Slide
    h= hammer

    E-----3---3h5---5-3-------------------
    B-3/5---5-----------5-----------------
    G-------------------------------------
    D-------------------------------------

    E-----3---3h5---5-3-------------------
    B-3/5---5-----------5-----------------
    G-------------------------------------
    D-------------------------------------

    E-------------------------------------
    B-5/7--5-3h5-5------------------------
    G-------------------------------------
    D----------------------------------
     
  2. invincible2k

    invincible2k New Member

    hi how r u all well y any of u post Najam sheraz,Vital Sign ,fakhir, Haroon, Awaz, Ahmed Jahanzeeb, Ali Haider and some of fuzon songs (except tere bina, Sagar and khamaj) they r also Paki Singers if anyone have their songs then do post here or anyone can tab their songs then post here so everyone can play and enjoy these artist songs not just Junoon, Noori, Strings, Aaroh. EP and specially Jal :) songs ok hope anyone will post new tabs not just same bands chords that everyone have take care u all kepp this work up Allah Hafiz
     

Share This Page