lead part of sajni by jal

Discussion in 'Hindi Guitar Tabs - Submit or Request' started by anubhav27, Feb 12, 2008.

  1. anubhav27

    anubhav27 New Member

    e------------------------------------------------------------------
    b-------------9 11(7times)11s12-11s9-9s7-7s5-5s4-4s5-7p5-4-2-0h2---
    g-------8-9-11-----------------------------------------------------
    d-8-9-11-----------------------------------------------------------
    a------------------------------------------------------------------
    E------------------------------------------------------------------


    e------------------------------------------------------------------
    b------------------------------------------------------------------
    g-4-1-------1-4-4-4-4p3-3-3-4-4s6-6-4-3-3-4-4s6-6-4-6-6-----6-6-6s8
    d----4-1-4---------------------------------------------------------
    a------------------------------------------------------------------
    E------------------------------------------------------------------

    e------------------------------------------------------------------
    b-------------------------4-4s5-------7--5-7------5-5-5----4-4-4---
    g-1s3-3s4--6s8----4-4s6-6--------------------6-6-6-6-6--4-4-4-4----
    d-------------6-8--------------------------------------------------
    a------------------------------------------------------------------
    E------------------------------------------------------------------

    e------------------------------------------------------------------
    b----2-2-2-----------------------------------------------------------------
    g-3-3-3-3---1-1-------------------------------------------------------------
    d------------4-2-4-1-2-1-4--------------------------------------------------
    a------------------------------------------------------------------
    E------------------------------------------------------------------
    not sure of this^
    e---------------------6-9-7-6-6-----------------------------------------
    b----7-9-9-9-9-9p7-7-9-------9-7-9-9-9----------------------------------------------
    g-6-8----------------------------------------------------------------
    d------------------------------------------------------------------
    a------------------------------------------------------------------
    E------------------------------------------------------------------
    can any body do better....any comments????
    have a look how it sounds!
    http://www.soundclick.com/bands/default.cfm?bandID=756161
     
    aeg0 likes this.
  2. tabs_beggar

    tabs_beggar New Member

    its solo part ?
     
  3. anubhav27

    anubhav27 New Member

    yup it comes inside the song somewhere!!!!!!!!here it at the link given
     
  4. anubhav27

    anubhav27 New Member

    wat is no body knows if it is right or wrong????huh/!!!1 this community...is going towards boredom....!!!!
     
  5. tabs_beggar

    tabs_beggar New Member

    yesterday i do listen them many times and emmmmm yea sumhow sounds so pretty :)
     
  6. anubhav27

    anubhav27 New Member

    hmmmm....now it feels better!!!!!!thanqu
     
  7. faizyg

    faizyg New Member

    Good work Anubhav
     
  8. anubhav27

    anubhav27 New Member

    thanks man!!!!!
     
  9. taruntycoon

    taruntycoon New Member

    thanx bro....gr8 wrk
     

Share This Page