Le chale - My brother Nikhil Chords

Discussion in 'Hindi Guitar Tabs - Submit or Request' started by billyboy, Mar 19, 2005.

  1. billyboy

    billyboy New Member

    :cool: :rock:
    This is awesome song from the film My brother Nikhil....
    The chord progression is Beautiful...

    Le chale
    ---------

    Em-----------C----Em-----------C---
    Chandni Muskuray Jab hawa kuch kahe
    Am-------------D----Am-----------D
    Samjho meri sadaye hai tere sath me
    Bb--------C-----------D
    jo ghana fiza mein andhera
    Bb------------C----------G---D
    Layenge hum sawere tere liye

    Em-----Bm------G
    Le chale Le chale
    C-----Am------F
    iyado ke iye kafile
    Em-----Bm------G
    jayenge hum jnaha
    C-----Am---F
    Iye jami asma
    C
    Mile

    if you don't have the song........

    you can simply download the demo song from this site...

    http://www.mybrothernikhil.com/multimedia


    Replys?????? :rockon:
     
    jayswami likes this.
  2. jayswami

    jayswami Blue J

    I got the Kay Kay version and its very different from from what u posted.... its a cool guitar song with lot of synth too.
     
  3. jayswami

    jayswami Blue J

    your chords are a good match of whats there on that demo mp3 on that site. good job. have u 5 stars i like the fast version better
    the one which starts wityh kisne hasaadiya kisko rula diya yaaron mere yaaron
     
  4. satan0508

    satan0508 New Member

    awesome song dud...thankx a lot
     
  5. marvellous song ;)
     
  6. light_of_erindi

    light_of_erindi New Member

    amazing tabs...fit very well....The song is awesome.....:)
     
  7. jayswami

    jayswami Blue J

    the slow version sounds like chinese soft rock, very cheesy for my tastes.. not my cup of tea.. i like the faster version better.
     
  8. jayswami

    jayswami Blue J

    ok the other le chale.. i downloaded form cool goose.. it says album = popcorn khao mast ho jao :) maybe thats a different le chale all together and not from this movie.. buhahahaha but its cool.
     
  9. jayswami

    jayswami Blue J

    ok the other le chale.. i downloaded form cool goose.. it says album = popcorn khao mast ho jao :) maybe thats a different le chale all together and not from this movie.. buhahahaha but its cool.
     
  10. Chirag

    Chirag New Member

    Hi Jayswami . now i am getting confused . The faster song u r talking about is from Popkorn khao... . it is sung by KK .its a diff song altogether . did u mean this song ?

    The song Billboy is talking about is from the movie My brother nikhil . its is also called le chale . there are 3 versions sung by Shaan ,KK and sunidhi chauhan . this song is totally diff from popcorn khao song .

    BTW , i love this song from My bro nikhil . i oved it since the first time i heard it . i'll try out the chords. thanks.
     
  11. anujroy

    anujroy New Member

    yea ...the song is from a new movie ... and its a good song .....
    the chords of billyboy are perfect ... !!!....arpeggiate them and u have the song ...
    good work buddy ...!!!!
    take care.
     
  12. jayswami

    jayswami Blue J

    yea dude i got confused with the pop corn khao song.. i like that song.. but hate the mr dear brother nikhil song..

    the more i hear it the suckier it gets.. but the chords he posted are accurate, i do mention that.
     
  13. Chirag

    Chirag New Member

    what is

    What is arpeggiate ?
     
  14. anujroy

    anujroy New Member

    arpeggio means playing the notes of a chord in some sequence instead of the usual rhythm playing.... originally the song is in an arpeggio, slow arpeggio actually ... sounds good ...
     
  15. KnightRider

    KnightRider New Member

    @anujroy...
    can u pls mention .... what kind of arpeggio do u play for this song... ?... i mean what sequence do u follow???
    thanks
     
  16. anujroy

    anujroy New Member

    My Brother Nikhil - Le Chale Arpeggio

    HTML:
    the "$" means ...take a very small pause in between and let the string vibrate
    
    e--------0---------0----|-------0-------0-----|
    B-----------0$-------0--|---------1$-------1--|
    G-----0---------0-------|----0-------0--------|
    D-----------------------|---------------------|
    A--2--------------------|-3-------------------|
    E-----------------------|---------------------|
    
              Chaandni Musku- rayeeeeeeeeeeeeeeeeeee 
              Jab hawa kuchh  kahe
    
    e--------0---------0----|-------2---------2-----|
    B-----------1$---------1|----------3$----------3|
    G-----2--------2--------|----2---------2--------|
    D--2--------------------|-0---------------------|
    A-----------------------|-----------------------|
    E-----------------------|-----------------------|
    
             Samjho merii sa  dayeeeinn
    	 hai tere saaaa   th me
    
    
    
    e-------1----------1----|-------0--------0------|--------3----------3----|
    B----------3$----------3|----------1$--------1--|-----------3$---------3-|
    G----3---------3--------|----0--------0---------|-----4---------4--------|
    D-----------------------|-----------------------|------------------------|
    A-1---------------------|-3---------------------|--5---------------------|
    E-----------------------|-----------------------|--3---------------------|
    
    
            jo ghana ho fi    za meinnnnnn              andhera 
    
            Layenge hum sa    were te                   re liye
    
    
    e-------0------|-------2--------|---------3----------3--------|
    B----------0---|-----------3----|-------------3----------3----|
    G-----0--------|----4-----------|-----4----------4------------|
    D--------------|----------------|-----------------------------|
    A--2-----------|-2--------------|-5---------------------------|
    E--------------|----------------|-3---------------------------|
    
    
            Le cha   le Le cha        leiinnnnnnnnnnnn
    
    
    e-------------------------------------------------------------
    B-------------------------------------------------------------
    G-------------------------------------------------------------
    D-------------------------------------------------------------
    A-------------------------------------------------------------
    E-------------------------------------------------------------
    
    
    
    iyado ke iye kafile
    Em-----Bm------G
    jayenge hum jnaha
    C-----Am---F
    Iye jami asma
    C
    Mile
    
    still some modifications required i guess.... so let me know...!!!
    take care.
    
    
     
  17. KnightRider

    KnightRider New Member

    hey anuj...
    thanks for the reply... just tried u'r arpeggio... and they sound cool
    thanks a lot again... :rockon:
     
  18. anujroy

    anujroy New Member

    let me know any changes ....if you feel so ...!!!
    take care.
     
  19. vikramk

    vikramk New Member

    Great song and great work

    :rock: This is a streaming song from the film.
    I'm insearch of these notations
    Thanks man :rockon:
     
  20. missrinku

    missrinku New Member

    hi, i see that you have kk's le chale, from my brother nikhil cud you please mail it to me on missrinku@gmail.com please mail the song to me, please, thank you soo much.
     

Share This Page