LAKSHYA - FULL GUITAR LEAD - Agar Main Kahoon

Discussion in 'Hindi Guitar Tabs - Submit or Request' started by lprassanth, May 4, 2006.

  1. lprassanth

    lprassanth New Member

    Guitar intro.. just before the vocal intro

    D-------------3---------------3-5-7-3---------
    A--5-5-5p3-5---5-3-5---3-5---------5-3-5---




    agar main kahoon (solo) guitar lead...

    play twice

    D--------------3-3-------------------------------------------------------
    A----3-5-5-3-------5----3~5-5-3-0-3-0------------------------------
    E-----------------------------------------------3-5---------------------

    and these once..

    e---------------------------------------------------------3-1------------------------
    B---3------3-6-----------3------3-6---------3--------------3--------------------
    G-----5-2-------------------5-2------------------5-2-----------5-2-5-5/7------

    e---------------------------------------------------------------------------------------
    B---3------3-6---------3---------3--------3-------3-6---3------------------------
    G-----5-2-----------------5-2-5--------------5-2-----------5-2-5-5/7-----------

    e---------------------8-8/10--8-7-7\8----------------------------------------------
    B----10p8p6-10--------------------------10-8-6-8---3--------------------------
    G--------------------------------------------------------------5-2-5/7---------------

    e-----12p10p8-10-8/10-8---------------------------------------------------------
    B---------------------------------8-10-8-6--3---------------------------------------
    G-------------------------------------------------5-2-5--5/7-7-7-------------------


    views and corrections are welcome...
     
    jim4u18 likes this.
  2. jim4u18

    jim4u18 New Member

    almost same i postd long time ago
    http://www.indianguitartabs.com/showthread.php?t=7246
    even better than mine coz tht time i didnt knew pull off n hammr on gr8 work it took hell outta me to tab this tht time so i can understnd u might have done very hard work
    reps to u
     
  3. lprassanth

    lprassanth New Member

    thanks jim...it took me an hour and a quarter to decode and tab it..
     

Share This Page