lakho hai yahan dilwale par pyar nahi milta ... (old song)

Discussion in 'Hindi Guitar Tabs - Submit or Request' started by madhura, Jan 22, 2005.

  1. madhura

    madhura pani poori yum yum ....

    hey ppl another try for old song ....
    i believe this song is frm kismat ( old) but not sure .....

    C-----------------F---
    lakho hai yahan dil wale
    ----C---------G7---
    par pyar nahi milta
    C-----------C7---F----
    aakhonmein kisiki wafaka
    C-----G7---C---
    ejhaar nahi milta
    C------------F---
    maifil maifil ja dekha
    -------------------C----
    har dil mein samakar dekha
    ----G7-------------C------
    har saaj mein gaa kar dekha
    F---------C----------C7( at time of repetation)
    dil ko kahi chain na mila (R)
    --------G7------------------------C---
    mein to pyare es duniya mein akelahi raha

    ppl feedback is appresciated ..... baaja/jay etc... plz let me know if its in wrong key .... it seems i have C-F-G7 syndrome.... may be becaus ei am still newbie .... and find those chords easy and comfortable as on yet.
     
  2. Subhro

    Subhro Argentina lost :"(

    .. nice effort super tabber.. :)
     
  3. vidhansinghai

    vidhansinghai New Member

    Yo!
    Nice song. Have been playing the song since quite some time. As per the tabs below, Madhura, I guess the chords would be a whole note up.
    i.e. C -> D
    F -> G
    C7 -> D7 ?????
    G7 -> F7 ?????

    I'm assuming the chords you've mentioned are right. :)). Well, why I'm saying this is because, I tried the chords and they somehow don't sound right. Please don't mind, but I think they are different. I'm not too good when it comes to finding the right chords. But I'll try and see.

    Thanks
    Vidhan

    Code:
    Song: Laakhon hain yahaan dilwaale
    Movie: April Fool
    
    Intro:
    I think I took this intro from this site, not too sure though.  I feel it's a bit wrong here and there
    but I guess, it's close enough.  I haven't listened to the song since a long time.
    
    E------7-7----------------------------------
    A----8-----8---------------8----------------
    G--7---------7-7--------9----9-7------------
    D-----------------9-s10---------------------
    A-------------------------------------------
    E-------------------------------------------
    
    
    E----7-10-7-----------------10-7------------
    A--8--------8---------------------10-7------
    G--------------7---9-10-11------------------
    D-------------------------------------------
    A-------------------------------------------
    E-------------------------------------------
    
    
    E---7-8---10--------------------------------
    A---9-10--12--12-10----12-------12-10-8-----
    G--------------------11----11-10---------9--
    D-------------------------------------------
    A-------------------------------------------
    E-------------------------------------------
    
    
    E----7---------5----------3-----------------
    A------8---------6-----------3--------------
    G--7---------5----------4-------4-----------
    D----------------------------------5--------
    A-------------------------------------------
    E-------------------------------------------
    
    The song melody:
    Tabbed by: Vidhan Singhai ([url]http://www.geocities.com/vidhansinghai[/url])
    
    E------7-7-7-8-7---------------------------7------------------------------------------------------
    B----8-----------8-10-8---8-------10-8---8---10-8-7-8-10------------------------------------------
    G--7--------------------9--------------7----------------------------------------------------------
    D-------------------------------------------------------------------------------------------------
    A-------------------------------------------------------------------------------------------------
    E-------------------------------------------------------------------------------------------------
    laakhon hain yahaan dilwaale      aur pyaar nahin milta
    
    E--7-8-10[3]-12-10-7--------------------------7---------------------------------------------------
    B--------------------10-8---8---------------8---10-8-7-10-8---------------------------------------
    G-------------------------9---------------7-------------------------------------------------------
    D-----------------------------10-----9-10---------------------------------------------------------
    A-------------------------------------------------------------------------------------------------
    E-------------------------------------------------------------------------------------------------
    aankhon mein kisi ki wafaa ka        ikraar nahin milta
    
    Music in between:
    
    E-------------------7-8-7-8-12-10-7-8-10-9-10-7---7-10-9------------------------------------------
    B-----7-8-----7-8-8-----------------------------8--------10---8-7---------------------------------
    G-7-9-----7-9-----------------------------------------------9-------------------------------------
    D-------------------------------------------------------------------------------------------------
    A-------------------------------------------------------------------------------------------------
    E-------------------------------------------------------------------------------------------------
    
    E--7-10-10/13-12-13-13/15-12-10-8-7--------------------------7-7-8--9--10-------------------------
    B-----------------------------------10--------8------7-10-7--8-8-10-11-12-------------------------
    G-------------------------------------------9---9--7----------------------------------------------
    D--------------------------------------9-10-------------------------------------------------------
    A-------------------------------------------------------------------------------------------------
    E-------------------------------------------------------------------------------------------------
    
    Stanza:
    
    E--10-12-10-10[2]-12-10---------------------------------------------------------------------------
    B--------------------------10---------------------------------------------------------------------
    G-----------------------12----9-12[4]-11-9--------9-9-12-9-9[3]-12-9-9-12-9-----------------------
    D---------------------------------------------------------------------------11/12-12[4]-----------
    A-------------------------------------------------------------------------------------------------
    E-------------------------------------------------------------------------------------------------
    mehfil mehfil jaa dekha                           har dil mein samaa kar dekha
    
    E-------------------10-10-------------------------------------------------------------------------
    B----10-13-13-12-10-------12-10-------------------------------------------------------------------
    G-12----------------------------12[5]-------------------------------------------------------------
    D-------------------------------------------------------------------------------------------------
    A-------------------------------------------------------------------------------------------------
    E-------------------------------------------------------------------------------------------------
    har saaz pe gaa kar dekha
    
    Music between stanza:
    E--------12-10-10---------------------------------------------------------------------------------
    B-----12----------13-12-10------------------------------------------------------------------------
    G--12----------------------12-11-12---------------------------------------------------------------
    D-------------------------------------------------------------------------------------------------
    A-------------------------------------------------------------------------------------------------
    E-------------------------------------------------------------------------------------------------
    
    Repeat stanza lines once.
    
    E-12-12-12-12-15[4]-12\10-10[4]-----15-14-13-12-----12-12-12-12-15[4]-12\10-10[4]-----------------
    B-------------------------------------------------------------------------------------------------
    G-------------------------------------------------------------------------------------------------
    D-------------------------------------------------------------------------------------------------
    A-------------------------------------------------------------------------------------------------
    E-------------------------------------------------------------------------------------------------
    dil ko kahin     chain na mila      <music>         dil ko kahiiiiin chain na mila
    
    E--------------------10-------10-10---------------------------------------------------------------
    B--10-12-12h13-13-10----12-10-------12-10---------------------------------------------------------
    G-----------------------------------------12\7----------------------------------------------------
    D-------------------------------------------------------------------------------------------------
    A-------------------------------------------------------------------------------------------------
    E-------------------------------------------------------------------------------------------------
    yeh to duniya mein pyaare akela hi raha
    
    Start the chorus again.
    
    
    
     
  4. jayswami

    jayswami Blue J

    song is from movie kismat. and it is in G. Madhura has promised to send the chords in G soon.
     
  5. madhura

    madhura pani poori yum yum ....

    i still am not about the 'key' though .....
    but my chords can be transcribed ( m i using this word right?) as follows .....
    Replace
    C ---- F ---- G7 ---- C7
    to play in D as:
    D ---- G ---- D7 ---- A7
    to play in G as:
    G ---- C ---- G7 ---- D7

    correct me if i am wrong ......( i believe i am right though)
    J was suggesting to replace F by Fm, if so .... replace similarly for playing in D or G key .....
     
  6. light_of_erindi

    light_of_erindi New Member

    Good work... I had tried something similar...but after playing this...I think I was playing a simplified version...Still no way to know if I'm right cause i don't have the audio for this song...so i can't check it with that...Till now ,I had been playing it like the way i remembered it in my head.
     
  7. jayswami

    jayswami Blue J

    Fm not inall places .. but only in one place
     
  8. KannadaBoi

    KannadaBoi Kannadiga

    YES!!!!!!!, thank you so much. I was trying to figure out the tabs for this song since december 2002 and failed everytime cuz i dont have the song with me. Chords is a different story :eek::

    They are awsome :nw: :nw: :nw:

    Three cheers for you

    Hip Hip HOORAY
    Hip Hip HOORAY
    Hip Hip HOORAY!!!!!!!!!
     
  9. Bala

    Bala New Member

    Excellanto work Madhura! Keep it up.
    A word about key to everyone. Well play it in a key suiting ur voice. Don't worry about the original song key. The sequence should be right and u should be able 2 play the chords with ease. Don't worry about tech complications of playing fancy chords. Remember the best songs in Hindi and English are the ones with simplicity. Can someone pse tab pal "pal dil ke pass tum raheti ho" or is it already available elsewhere. I m new here and new to hindi songs. Love u all
     
  10. lodhra

    lodhra New Member

    Hi dont know the lyrics

    Chords
    ------

    F---> 133211
    G---> 355433
    A#--> 113331
    C---> 335552


    F---------------------A#
    Laakhon Hain Yahan Matwaale

    A#------------------C
    Par Pyaar Nahin Milta

    C-F-------------------C-----A#
    aankhon Mein kisiki Wafaa Ka

    A#------C-----F
    Ikraar Nahin Milta

    Interlude

    F------------------A#
    Har Dilme jaakar dekha

    A#------------------F
    Har...............Dekha

    A#----------C------F
    Har Annkme Jaakar Dekha

    A#-------G----F----------
    Dil Ko Kahin Chain Na Mila

    F---------------------A#----C--------F
    Main toh duniya mein pyaare akela hi rahan

    F---------------------A#
    Laakhon Hain Yahan Matwaale

    A#------------------C
    Par Pyaar Nahin Milta

    F-------------------C-----A#
    aankhon Mein kisiki Wafaa Ka

    A#------C-----F
    Ikraar Nahin Milta

    and so on.......
     
  11. Bala

    Bala New Member

    @lodhra Good substitution lyrics!.U can be a good song writer. One small tech issue with chords u used. This appears in the key of F. The F major scale has the following notes. F G A Bb C D E F. Since there is already an A note present the next note will be called a Bb instead of A#. So the chords would be F Bb... etc.. Cheers 2 you
     
  12. lodhra

    lodhra New Member

    hey thanks i am not that technically sound. But thanks. how did u find the chords
     
  13. Bala

    Bala New Member

    Good Effort! Try C7 instead of C. All u gotta do is just transpose the chords posted by Madhura to your Key
     
  14. surmayee

    surmayee New Member

    Vocal keys aside, the original is in G major. Chord sequences pretty much the same in all verses an go G/D/C7/G. C7 is important to give it the R&R vibe.
     

Share This Page