Laila O Laila

Discussion in 'Hindi Guitar Tabs - Submit or Request' started by preezer369, Dec 28, 2003.

  1. preezer369

    preezer369 New Member

    Found these off another site...but i think something maybe wrong wit it or maybe my guitar is just not tuned...

    LAILA O LAILA

    E|----6--8-10-11-10-10-10-10---10-11-10-8-8-8-8-8-8------|
    B|-8-----------------------------------------------------|
    G A# C D D# DDDDDD D D# D CCCCCCCCCC
    Laila o laila Kaisi mein laila



    E|--8-10-8-6--6--6--6--6----6--8-6-----------------------|
    B|----------------------------------8--8-----------------|
    C D C A# A# A# A# A# A# C A# G G
    Har koi chahe mujhse Milana akela……………


    E|-10-10-11-10-8-8--------------8-8-10-8-6-6-------------|
    B|-------------------------------------------------------|
    D D D# D C C C C D C A# A#
    Jisako bhi dekhu Duniya Bhuladu


    E|--6--6--8--6-5-5-5-----------5-6--5--------------------|
    B|------------------------------------8--8---------------|
    A# A# C A# A A A A A# A G G
    Majanu Banadu Aisi main laila


    E|--6--6--6-5--6--6--6---------10-8-6---5-5--------------|
    B|------------------------------------8------------------|
    A# A# A# A A# A# A# D C A# G A A
    Mohabbat ka jisako Tarika na aaya

    E|--5-5-5---5-5--8-------10-8-6--5-----------------------|
    B|---------------------------------8-8-------------------|
    A A A A A C D C A# A G G
    Use jindagi ka Saleeka na aaya

    E|--10-10-11-10-8-8-------8-8-10-8-6-6-------------------|
    B|-------------------------------------------------------|
    D D D# D C C C C D C A# A#
    Rahe vafame Jaan par jo khela


    E|--6--6--8-6--5-5-5-------------5-6-6---5---------------|
    B|-----------------------------------------8-8-----------|
    A# A# C A# A A A A A A# A G G
    Usake liye hai ye Hasino ka mela


    E|----6--8-10-11-10-----10-11-10-8-10-8------------------|
    B|-8-----------------------------------------------------|
    G A# C D D# D D D# D C D C
    Laila o laila Kaisi mein laila

    E|-8-10-8-6-6--6-5--6----------6--8-6--5-8---------------|
    B|-------------------------------------------------------|
    C D C A# A# A# A A# A# C A# A G
    Har koi chahe mujhse Milana akela
     
  2. FinalPhase

    FinalPhase New Member

    i tried it sounds a lil wierd
     
  3. preezer369

    preezer369 New Member

    yea
    thats wat i though to but i think the actual way to play it is pretty easy if u have the gist of it...
     
  4. Redalert

    Redalert New Member

    sounds ok to me...:shutup:
     
  5. RBJ

    RBJ New Member

    It sounds perfect for me as well. May be your Guitar is not tuned or something..? :confused:

    but I m fine with this notes....its awesome...thanks

    :)
     
  6. preezer369

    preezer369 New Member

    yea...ur probably rite...i havent' gotten my guitar tuned and i don't kno how to tune it myself
     
  7. RBJ

    RBJ New Member

    I can help you in tunning your guitar by your self. Infact I am totally new in Guitar thing but somehow I tunned my guitar by myself.

    I hope you know the tunes for "Sa, Re, Ga, Ma..."

    I have notes for "Sa, Re, Ga, Ma..." just go through that and I hope it should work for you to tune your guitar

    E----------------------------------------------------------------------------
    B-----------------------------------------------------------0(Ni)----1(Sa)-
    G-------------------------------------0(pa)-----2(dha)------------------
    D----------0(Re)..2(ga)...3(ma)-----------------------------------------
    A-------3(sa)--------------------------------------------------------------
    E----------------------------------------------------------------------------


    just go through this notes and make it sound like "Sa Re Ga Ma.."

    :beer:
     
  8. Ranjha

    Ranjha New Member

    wohhh..



    oye dude... you toh completely chha gaya man...

    that is so nice technique..

    BUT WHY THE HELL THEN I PAID 30 friekin DOLLARS FOR THIS NEW TUNER I BAUGHT.. ehm ehm... i am sorry about that..

    but besides that... Good job patel..
     
  9. prash_rocks

    prash_rocks Over the Hills & Far Away

    I think what RBJ is suggesting needs a lot of experience - an ear for the absolutely right and perfect tone - as simply 'making' the tones sound like sa, re, ga, ma... can be misleading cuz even if you get all your tones to sound right in order together, what if the first itself is not the right tone? I suppose you get what I mean.

    A better way is to use to use a synthesiser to help you tune your guitar. Alternatively, google for 'guitar tuner' and several websites will popup that carry simple midi-based tuners from where you can tune just as if from a synth. I've attached below one such simple tuner from http://www.hotfrets.com/tuner.asp.

    The best way is to use a digital tuner like the simple and dedicated AP Guitar Tuner (http://www.cerlsoundgroup.org/cgi-bin/aptuner/ftp/apmain/APTunerInstall207.exe) or the advanced and multi-featured GuitarFX Box (http://www.guitar-fxbox.com/fxbox26.zip).

    It helps if your's is an electric guitar or an acoustic with a soundhole pickup, else you'll need the computer microphone to tune using the above digital tuning softwares.
     

    Attached Files:

  10. cshe108

    cshe108 New Member

    I agree.

    AP guitar tuner is impressive.. I like its simplicity and
    graphical interface.

    Install it, hook the guitar output to computer microphone
    input, pluck the string and it will show you how much you
    are off the actual tune .. :).
     
  11. RBJ

    RBJ New Member

    It can be best for Electric Guitar but for Acoustic Guitar you have to do something like...what I suggested.

    :think: :think:
     
  12. cshe108

    cshe108 New Member

    I know what you mean. The help page for the software
    did state that if you have an acoustic guitar, you can play
    it close to a real microphone and adjust it.

    Ab bekaar mein tension le raha tha na yaar ;)..
    just kidding...


    Cheers!
     
  13. prash_rocks

    prash_rocks Over the Hills & Far Away

    @RBJ:
    Yaar, tuning the strings is not that easy as you make it seem. I'll tell you, it doesn't so much matter if you've just begun playing - in that case you'll hardly feel that difference. But when you start playing more complex things, you'll know that even a quarter turn of the tuning pegs can entirely change the sound of your guitar.
    ***
    I think tuning is too important a topic to be not posted as a separate thread. So I'll make a thread only dedicated to the tuners so that all can see...
     
  14. RBJ

    RBJ New Member

    yeah..I think you are right.

    I saw your seperate thread for that. Its awesome. Thanks dude. But you know what.? I learnt classical music for about six months and fortunately or luckily whatever you say..I tuned my guitar with "Sa..Re...Ga..Ma"....
    and I realize that..when I tried to play most of the songs using tabs provided here.

    But again..I guess I have to use this software to check it whether its properly tuned or not.

    :)
     
  15. Taj

    Taj New Member

    hey guys , just suit yourself, this is a thread for the song Laila O laila, tune your guitars by the way u think is the best.:beer:
    though i still tune my guitar with AP tuner !:)
     
  16. abkinz

    abkinz New Member

    Another way. Sounds superb

    Not mine. Found this on another website :)

    Laila main laila, aisi hoon laila
    --------------------------------------------------------
    --------------------------------------------------------
    -----6-8--8h9-6--8h9-6--8--8--8-9-8-6--6h8----6h8----6--
    -6-9---------------------------------------9------9-----
    --------------------------------------------------------
    --------------------------------------------------------

    Har koi chaahe mujhse milna akela
    --------------------------------------------------------
    --------------------------------------------------------
    -6--6-8-6-----------------------------6-----------------
    ----------9-9--9h11-8--9h11-8--9--9-9---9-8-6-6--6------
    --------------------------------------------------------
    --------------------------------------------------------

    Jisko bhi dekhoon duniya bhula doon
    --------------------------------------------------------
    --------------------------------------------------------
    -8-8-9-8-6--6----6--6-6-8-6-----------------------------
    ---------------6------------9--9----9-------------------
    ----------------------------------9---------------------
    --------------------------------------------------------

    Majnu bana doon aisi main laila
    --------------------------------------------------------
    --------------------------------------------------------
    -----6--------------------------------------------------
    -9-9---9-8--8----8--8-8-9-8-6--6------------------------
    ---------------6----------------------------------------
    --------------------------------------------------------

    --MALE--
    Laila o laila laila, aisi tu laila
    Har koi chaahe tujhse milna akela

    --FEMALE--
    O mohabbat ka jisko tareeqa na aaya
    --------------------------------------------------------
    --------------------------------------------------------
    ---------------------8-6-8-6----------------------------
    -6-9--9-9-9-8-9-9-9----------9-8-8----------------------
    --------------------------------------------------------
    --------------------------------------------------------

    Usse zindagi ka saleeka na aaya
    --------------------------------------------------------
    --------------------------------------------------------
    -------------6--6---------------------------------------
    -8-8-8-6-8-8------9-8-6-6--6----------------------------
    --------------------------------------------------------
    --------------------------------------------------------

    Raahe vafa mein jaan par jo khela
    --------------------------------------------------------
    --------------------------------------------------------
    -8-8-9-8-6--6----6--6-6-8-6-----------------------------
    ---------------6------------9--9----9-------------------
    ----------------------------------9---------------------
    --------------------------------------------------------

    Uske liye hai yeh haseenon ka mela
    --------------------------------------------------------
    --------------------------------------------------------
    -----6--------------------------------------------------
    -9-9---9-8--8----8--8-8-9-8-6--6------------------------
    ---------------6----------------------------------------
    --------------------------------------------------------

    Laila main laila, aisi hoon laila
    Har koi chaahe mujhse milna akela

    --MALE--
    O laila, a ha, a ha, a ha
    Gullu gullu, gullu gullu - 2

    --FEMALE--
    Mujhe dekhkar jo na dekhe kisi ko
    Mere vaaste jo mita de khudi ko
    Ussi deewaane ki banoongi main laila
    Usse pyaar doongi main pehla pehla
    Laila main laila, aisi hoon laila
    Har koi chaahe mujhse milna akela

    --MALE--
    Laila o laila laila, aisi tu laila
    Har koi chaahe tujhse milna akela

    --CHORUS--
    Laila o laila laila, aisi tu laila
    Har koi chaahe tujhse milna akela

    --MALE--
    (Oh laila, oh laila)

    --CHORUS--
    La la la la la, la la la la la - 2
     

Share This Page