Ladki Kyun (Good and simple)

Discussion in 'Hindi Guitar Tabs - Submit or Request' started by vintage, Jul 1, 2004.

  1. vintage

    vintage New Member

    Here are the tabs for Ladki Kyun : -

    E-0-0--0-1-----
    B----3----------
    G---------------
    D---------------
    A---------------
    E---------------

    Sochti Hai Zyaada ....

    E-----------0--------------
    B-3-3-11-3--------------------
    G-------------------------
    D-------------------------
    A-------------------------
    E-------------------------

    Kam Woh Samajhti Hai ....

    E----------------------------
    B------0-01-3-1-0-------------
    G--0-2--------------------------
    D----------------------------
    A----------------------------
    E----------------------------

    Ladki Kyun Na Jaane Kyun ....

    E----------------------------
    B------0-1-0--------------------
    G--0-2-------02------------------
    D----------------------------
    A----------------------------
    E----------------------------

    Ladkon Si Nahi Hoti .

    ENJOY !!

    VINTAGE (http://Shaurya.Co.Nr)
     
  2. Sandy

    Sandy New Member

    Hey,

    that a nice one, but can we have this for the complete song, am just a beginner, needs little spoon feeding.
    Hope u dont mind.
    ;)
     
  3. nimra_guitar

    nimra_guitar New Member

    u've maybe put ur E-----------0--------------
    B-3-3-11-3--------------------
    G-------------------------
    D-------------------------
    A-------------------------
    E-------------------------

    Kam Woh Samajhti Hai ....

    WRONG..... it should be '1' instead of '11' and on the same string
     
  4. MARS

    MARS Mars Ji...Finally!!!!!

    Take it easy man...
    he just forgot to type a dash (-) between two 1's...
    any body wud have figured that its 1-1 and not 11...
    similarly in the last para too...its nor 02 but 0-2...
    thats ok..typing err u know...
    its hellova job to tab on note pad..
    it sucks.........
     
  5. bob-bobby

    bob-bobby Extinct or Banned!

    mars - have you tried this , dun think it sounds too well

    hey igtians , the guru - give us tabs for full song , i ve also been trying to get it correct.

    rgds
    b....
     
  6. MARS

    MARS Mars Ji...Finally!!!!!

    Hey Bob...
    Sorry for the late reply..
    am just back from my place...

    No..i haven't tried thais song..just commented after having a look at the tabs...
    So ..dont have any idea about them...
    have u got the better one?
     
  7. nishantsaran

    nishantsaran New Member

Share This Page