Kushi theme music Tabs

Discussion in 'Tamil Guitar Tabs - Submit or Request' started by arun88guy, Apr 9, 2009.

  1. arun88guy

    arun88guy New Member

    Kushi Theme Music



    E----0--7--5--7--5--7--9--7
    B--------------------------


    E--0--7--5--7--9--7---5--4--2
    B---------------------------


    E--4--2--4--2--4--7--5--4--2
    B---------------------------


    E--4--2--4--7--5-
    B----------------

    try this and comment for improvising...
     
  2. KRISH ANAND

    KRISH ANAND New Member

    Good one dude


    a slight change in urs , sounds good i think :


    E----0--7--5--7--5--7--10--7
    b--------------------------


    e--0--7--5--7--10--7-
    b---------------------------


    e--4--2--4---7--5--4--2
    b---------------------------


    e--4--2--4--7--5-
    b----------------
     
  3. arun88guy

    arun88guy New Member

    thanks

    thanks krish its nice too..
     
  4. v.raghura87

    v.raghura87 Member

    Thank u soooooooooooooooooooooooooooooo much
     
  5. pearlmaharajan

    pearlmaharajan New Member

    can some1 work on it and finish it fully ? nice theme... a rare super work from Deva (donnow... which one is the original...)
    anyhow thanks to him..
     
  6. Hi pearl Sir,

    Can you pl put down a link to the video of the full theme?
    I was thinking that the whole theme had only 3 major riffs, which I have tabbed here >>> http://www.indianguitartabs.com/f43/khushi-theme-tabs-all-three-riffs-here-53672.html

    I will tab the rest as soon as I can.
    Thanks,
    Abhay
     
  7. pearlmaharajan

    pearlmaharajan New Member

    thanks... I shall look for it.. problem is ... my 3.5 jack failed in my computer... so have to buy a USB headset or do something else..
     

Share This Page