kuch khaas hai--fashion (2009) intro tab!!

Discussion in 'Hindi Guitar Tabs - Submit or Request' started by fathom, Aug 30, 2009.

  1. fathom

    fathom New Member

    hey guys this is my first post but here goes...

    Song: Kuch Khaas Hai
    Movie: Fashion (2009)
    Tabbed by: Nitish (fathom)

    song link on youtube: http://www.youtube.com/watch?v=sQlp15We0-g

    here is the first riff

    Riff A

    e-----12---10---12-------------|---12---10---12---10---12--|--12---10---12
    B-------------------------------|----------------------------|--------------
    G-------------------------------|----------------------------|--------------
    D-------------------------------|----------------------------|--------------
    A-------------------------------|----------------------------|--------------
    E-------------------------------|----------------------------|--------------

    e---13---13s15---13---12---10---12---8---(8h)10-------------------------
    B-------------------------------------------------------------------------
    G-------------------------------------------------------------------------
    D-------------------------------------------------------------------------
    A-------------------------------------------------------------------------
    E-------------------------------------------------------------------------


    ok thats the main theme of kuch khaas hai now the other riff which is after the first riff....

    wait for 2 bars of guitar strum (background)

    Riff B

    e------------------------------------------------------------|
    B--------3---5----3---5---1~~------------------------------|
    G----2--------------------------------2s4---5---2~~--0-----|
    D--2---------------------------------------------------------|
    A------------------------------------------------------------|
    E------------------------------------------------------------|

    e---7--8----------------------------|
    B-----------10---8--10--------------|
    G-------------------------7s9~~----|
    D-----------------------------------|
    A-----------------------------------|
    E-----------------------------------|

    Thanks....thats it..the rest are chords..most of the chords have already been put up by the rest but i noticed not many have this intro part! so yeah..and please forgive me for any mistakes...im only 14 yrs old..lol enjoy!!

    fathom
     

Share This Page