Kochadaiyaan guitar tabs by sathish lion

Discussion in 'Tamil Guitar Tabs - Submit or Request' started by sathish lion, Nov 1, 2013.

  1. sathish lion

    sathish lion New Member

    Kochadaiyaan rajini guitar tabs by sathish lion

    MY HEART LY HAPPY DIWALI TO ALLL IGT HEROS AND HEROINS ....

    GYS LAST NIGHT I HERED TAMIL SONG Kochadaiyaan ... I PLAYED THE SONG IN TABS

    WATCH AND COMEND IT ...

    IF U LIKE THE TABS ... PLESE RELY FRND AND ... I WILL POST THE TABS IN SHORT PERIOD ...


    Kochadaiyaan - The Legend - YouTube


    BY , ..

    SATHISH LION THE GUITAR VERIYAN ... (TO RAJINI FANS )
     
  2. sathish lion

    sathish lion New Member

    TO ALL IGT MEMBERS MY GIFT FOR DIWALI .........

    KOCHADAIYAAN TABS BY SATHISH LION

    ENGE POGUDHO VAANAM
    e –0—1-----0--------------------0
    b-----------------3---1---------3--------
    ANGE POGIROM NAAMUM
    e –0—3---0--------------0------------
    b--------------3--1---------------3------

    ENGE POGUDHO VAANAM
    e –0—1-----0--------------------0
    b-----------------3---1---------3--------

    ANGE POGIROM NAAMUM
    e –0—3---0--------------0------------
    b--------------3--1---------------3------

    VAAZHVIL MEENDAI..VAIYAM VENRAI
    e---3---5--------7---8---------7--5-------3--------
    b-----------------------------------------------5-------



    ELLAI UNAKILLAI THALAIVAA
    e---3---5---77---8--7------777~12-------
    b-----------------------------------------------

    KAATRIN PAADALGAL ENRUME THEERATHU
    e---7---5--------7---12-- 12------10--9-7-----12~-9--7----
    b---------------------------------------------------------------


    VETTRI CHANGOLI ENRUME OYAATHU..OYAATHU
    e--7--5----7---12--12----10--9--7---7--------------7---------
    b---------------------------------------------9-----5------ 9--5---

    HEY..
    E --12

    UNATHU VAALAAL ORU SURIYANAI UNDAAKKU
    e--7-3-5--- 9---10-------9--7---7--5--4--5-------7--9--7---
    b-------------------------------------------------------------------


    HEY..
    E --12

    ENATHU THOZHA NAM THAAI NAATTAI PONNAAKKU
    e--7-3-5--- 9---10-------9--7---7--5--4--5-------7--9--7---
    b-------------------------------------------------------------------


    AAGAYAM THADUTHAAL PAAYUM PARAVAI AAVOM
    e—5-4—5----7—9---7~9-------7---9-------101010------9--7
    MAAMALAIGAL THADUTHAAL THAAVUM MEGAM
    e—5-4—5-5---7—9---7~9-------7---9-------101010------
    aavoom
    e—9---7

    KAADU THADUTHAAL KAATRAI POVOM
    e---7—8---7---5—7~9-------7-8-------7-----5---
    KADALE THADUTHAAL MEENGAL AAVOM
    e---7—8---7---5—7~9-------7-8-------7-----5---

    ENGE POGUDHO VAANAM
    ANGE POGIROM NAAMUM

    ENTHAN VILLUM..SOLLIYA SOLLUM
    ENTHA NAALUM POITHATHILLAI
    ILAYA SINGAME EZHUNTHU PORAADU.. PORAADU
    THEERA VAIRAM UN NENJAM NENJAM NENJAM
    VETRI UNAI VANTHU KENJUM KENJUM KENJUM
    UNGALIN VAAZHUTHUKALAL UYIR KONDU EZHUNTHU VITTEN
    VAAZHTHIYA MANANGALUKKU EN VAAZHKAIYAI VALANGI VITTEN

    HEY..UNATHU VAALAL ORU SURIYANAI UNDAAKKU
    HEY..ENATHU THOZHA NAM THAAI NAATTAI ONRAAKKU

    ENGE POGUDHO VAANAM




    ANGE POGIROM NAAMUM
    VAAZHVIL MEENDAI..VAIYAM VENRAI
    ELLAI UNAKILLAI THALAIVAA
    KAATRIN PAADALGAL ENRUME THEERATHU
    VETTRI CHANGOLI ENRUME OYAATHU..OYAATHU..


    OK FRNDS HAPPY DIWALI ...

    ANY CHANGES IMEEDIATELY TELL ME REFFER MY VIDEO ... .

    BY

    SATHISH LION (T-G-V) ...

    Kochadaiyaan - The Legend - YouTube
     
  3. sathish lion

    sathish lion New Member

    ena mama elaru try paningala ???
     
  4. sathish lion

    sathish lion New Member

    how is tiz

    how is tiz man any 1 tell
     
    Last edited: Nov 4, 2013
  5. sathish lion

    sathish lion New Member

    how is tizzz
     
  6. SATHYA167

    SATHYA167 New Member

    Your video is OK. You are able to get the flow. Not sure in the end as the song is not yet familiar for me....

    No doubt, it is a good attempt and do keep it up..... Sathya
     
  7. sathish lion

    sathish lion New Member

    thank you sir ... sathya167
     
  8. sathish lion

    sathish lion New Member

    sathya sir epo guitar vanguvinga ???
     
  9. anrinu

    anrinu New Member

    good job brother ! i hvnt heard this song, but sounds fine!
     
  10. sathish lion

    sathish lion New Member

    thank u boss ... happy to hear tiz
     
  11. sathish lion

    sathish lion New Member

    igt is not the site it is the temple / :cool:
     

Share This Page