KK - Pyar ke Pal Solo (Posted)

Discussion in 'Hindi Guitar Tabs - Submit or Request' started by stranger_in_ny, Jul 14, 2006.

  1. stranger_in_ny

    stranger_in_ny New Member

    Prash_rocks has got the chords right here..

    http://www.indianguitartabs.com/showthread.php?t=641&highlight=pyar+ke+pal

    Solo

    Code:
    
    E |---------------------------------------------------------------
    B |---------------------------------------------------------------
    G |---------------------------------4b6r4p2h4~--------------------
    D |-------2-----4/6~-----6b\2//7~----------------6b\4p2h4~--------
    A |--2h4-----4----------------------------------------------------
    E |---------------------------------------------------------------
    
    
    E |---------------------------------------------------------------
    B |---------------------------------------------------------------
    G |---------------------------------4b6r4p2h4~-------4-4----------
    D |-------2-----4/6~-----6b\2//7~---------------4/6-------6\4p2-2-
    A |--2h4-----4----------------------------------------------------
    E |---------------------------------------------------------------
    
    
    E |------------------------
    B |------------------------
    G |------------------------
    D |------2-2-------2-------
    A |-2h4-------4p2-----4p2--
    E |------------------------
    
    
    
    corrections welcome..

    cheers!
     
  2. prit_undead

    prit_undead New Member

    ok
    got it
     
  3. nitish128

    nitish128 New Member

Share This Page