Khamaj or more saiyyan by Fuzon

Discussion in 'Pakistani Guitar Tabs - Submit or Request' started by qwan, May 31, 2004.

  1. qwan

    qwan New Member

    Got this from pakmanzil.com nice site good chords there
    This song is just excellent i have gone crazy after this one i heard is is the soundtrack of Nagesh Kukunoors Hyderbad Blues 2
    One more think the song on tv showed the name as more saiyaan and album khamaj but pakmanzil and the song downloaded from kazaa show the name as khamaj and album as saagar.... i have the entire saagar album but this song is not there. and msn.com shows the song as more saiyann from saagar in the article about hyderbad blues 2 :confused:

    Author/Artist: Fuzon
    Title: Khamaj
    Transcribed by: Shani
    Email: [SNIP]
    Date: 05-February-2004
    URL: [SNIP]
    Comments : This tabs is totally my work all suggestions, corrections
    welcome at [SNIP]

    Standard tuning

    ~~ Long Vibrato ~ Short vibrato
    h Hammer on p Pull off
    s Slide ( ) Legato -Play only first note
    b Bend r Release

    Chords : F#(244322), Bbm(113321), Bsus(224422)

    Intro

    Riff 1:

    e-----------11-----------------------------------------------------
    B-11-12-9~----------9-11-9----------(12p11p9)----------------------
    G---------------11---------11-8~~-------------11-10~~h11--8~~-10~~-
    D------------------------------------------------------------------
    A------------------------------------------------------------------
    E------------------------------------------------------------------

    e-------------------------------------------------------------------
    B-------------------------------------------------------------------
    G------11-8----------------------(9s11~~)---------------------------
    D-8-9-------11-9-8-------8-(8h9)------------------------------------
    A------------------11-9---------------------------------------------
    E-------------------------------------------------------------------

    e-----------11-------------------------------------------------------
    B-11-12-9~----------9-11-9----------(11h12p11p9)---------------------
    G---------------11---------11-8~~---------------11-10~~h11--8~~-10~~-
    D--------------------------------------------------------------------
    A--------------------------------------------------------------------
    E--------------------------------------------------------------------

    e-------------------------------------------------------------------
    B-------------------------------------------------------------------
    G------11-8----------------------(9s11~~)---------------------------
    D-8-9-------11-9-8-------8-(8h9)------------------------------------
    A------------------11-9---------------------------------------------
    E-------------------------------------------------------------------

    then Play following Pattern in sequence

    Note: These Pattern are very easy to Play just Grip Bsus Chord in Pattern 1
    and use ur Middle finger to Play Lower E the TOP one 4th Fret Note,
    In Pattern 2 Just Shift ur Middle finger to 3rd Fret of G String
    and use ur Ring finger to Play Top E 4th Fret Note.
    Pattern 1 and Pattern 3 are same :)



    P1: P2:

    e------2----------2----- e------2-----------2-----
    B----2--------------2--- B----2-----------2---2---
    G-------------4--------- G-3----------------------
    D-4--------------------- D------------------------
    A----------------------- A------------------------
    E--------4-------------- E--------4---------------

    P3: P4:

    e------2----------2----- e----1-1s4-2~--2-2s4-2~~-
    B----2--------------2--- B------------------------
    G-------------4--------- G-3----------------------
    D-4--------------------- D------------------------
    A----------------------- A------------------------
    E--------4-------------- E------------------------


    P1 P2 P1 P2
    sawan beto ja re k harwaa, sawan beto ja re k harwaa

    P1 P2 P1 P2
    mun mera ghabraaaayee, mun mera ghabraaaayee

    P1 P2 P1 P2
    aaisay gayo pardes pia tum, aaisay gayo pardes pia tum

    P1 P2 P1 P2
    chain hamein nahi aaaaaaaaaaaye, chain hamein nahi aaaaaaaaaaaye


    Chorus:

    Bsus F# Bsus F#
    Mora saiyaa mosay bole naa, Mora saiyaa mosay bole naa

    Bbm F# Bbm F#
    mein lakh jatan kur haari, laakh jatan kur haaaaaaaarri

    Bsus F# Bsus F#
    Mora saiyaa mosay bole naa, Mora saiyaa mosay bole naa


    Play Intro Riff 1

    P1 P2 P1 P2
    tu jo nahi tau aisay pia hum, tu jo nahi tau aisay pia hum

    P1 P2 P1 P2
    jaisay suunaa aanngana, jaisay suunaa aanngana

    P1 P2 P1 P2
    nain teha ri raaha ne haaare, nain teha ri raaha ne haaare

    P1 P2 P1 P2
    nainen ko tarsaaa oo naa, nainen ko tarsaaa oo naa

    Repeat Chorus

    Solo:

    e------------------------------------------------(7s13)-13-11-9-9------9-
    B-------------------------4-4-(4s6~)-(4s2s4~~)--------------------9-11---
    G-(6s8s10~~)-(8s6s8~~)--6------------------------------------------------
    D------------------------------------------------------------------------
    A------------------------------------------------------------------------
    E------------------------------------------------------------------------

    e------9------13-11-9------------------------------------------------------
    B-9-11---11-9---------11-9-11-(11s12)-11-9----------9-11-(11s12)-11-9------
    G------------------------------------------11~~-11--------------------11~~-
    D--------------------------------------------------------------------------
    A--------------------------------------------------------------------------
    E--------------------------------------------------------------------------

    e---------------------------9--------------------------14-11-13-11-9-16-11-19-18-
    B--------------------------------------------------------------------------------
    G-11s13-10-11-10-11-10--10----(10h11p10p8)---------8-----------------------------
    D------------------------------------------11~~----------------------------------
    A--------------------------------------------------------------------------------
    E--------------------------------------------------------------------------------

    e-14-11-13-11--9h10--9---------------------------------------------------------
    B----------------------12-11-9------------12----14-12-11-9-------9-------------
    G------------------------------11~~---11-----11------------11-10---11----------
    D------------------------------------------------------------------------------
    A------------------------------------------------------------------------------
    E------------------------------------------------------------------------------



    P1 P2 P1 P2
    pyar tumhe kitna kurte hain, pyar tumhe kitna kurte hain

    P1 P2 P1 P2
    tum yeh samaj nahi paao gaay, tum yeh samaj nahi paao gaay

    P1 P2 P1 P2
    jub humna hongay tau pe harwaa, jub humna hongay tau pe harwaa

    P1 P2 P1 P2
    bolo kia kub aaao gaayyy, bolo kia kub aaao gaayyy

    Repeat Chorus

    Play Intro Riff 1
     
  2. aysh

    aysh -|h3 ori9in4| (ui!aris-|-

    hi guys ,
    after listening(and relistening) to the live khamaj ( [SNIP] )
    i have the correct solo :

    e----------------------------------------------------------13-11-9-11-9---------9--
    B------------------------------4-4-(4s6~)-(4s2s4~~)---2s9-------------11-9-11---
    G-(6-8-8s10~~)-(8s6s8~~)--6------------------------------------------------
    D------------------------------------------------------------------------
    A------------------------------------------------------------------------
    E------------------------------------------------------------------------

    e-----------------13----------------------------------------------------------
    B-11-9----12-11-9----11-9-11-12-(11h12p11p9)----------9-11-12-(11h12p11p9)----
    G------11------------------------------------11~~---11----------------------11~~-
    D--------------------------------------------------------------------------
    A--------------------------------------------------------------------------
    E--------------------------------------------------------------------------

    e--------------------------------11----------------------14-11-13-11--11-19-11-16-14-
    B--------------------------------9-6--7-6-7s6---------11~-------------------------------
    G-11s13-10-8---8------------------------------8-6--------------------------------
    D------------11--11--8----8-11-------------------------------------------------------
    A----------------------10----------------------------------------------------------
    E--------------------------------------------------------------------------------

    e----14-11-13-11--9h10--9-----------10~----9-----------12~---9-----------14~--16s14-16s18~~
    B-11~---------------------12-11-9------------12-11-9-----------12-11-9--------
    G---------------------------------11------------------11----------------11-------------
    D------------------------------------------------------------------------------
    A------------------------------------------------------------------------------
    E------------------------------------------------------------------------------


    nwo comes the keyboard part which can be done like this on the guitar

    E--------6----------------------------------------------------------------------
    B--6-7-9---9-7-6---------7------------------------------------------------------------
    G-----------------6-8-10---10-8-6----------8--------------------------------------------
    D-----------------------------------8-9-11---11-9-8~--9-11-8~-6~-----------------------
    A------------------------------------------------------------------------------
    E------------------------------------------------------------------------------


    E--------6----------------------------------------------------------------------
    B--6-7-9---9-7-6----------7-----------------------------12-11~-9~-7~----------------
    G------------------6-8-10---10-8-6----------8-7-8-10-11----------------------------------
    D------------------------------------8-9-11--------------------------------------------
    A------------------------------------------------------------------------------
    E------------------------------------------------------------------------------

    pyaar tumhe kitna karte hainn.....(myaon myaon)


    patterns P1 and P2 can be played easily by barring hole 2nd fret then barring only top 3 strings at 4th fret by ring finger. keep middle finger at 3rd fret and pinky at 4th fret on the 3rd string from bottom. play P1 this way and for playing P2 u only have to lift the pinky finger !! :beer:

    P1: P2:

    e------2----------2----- e------2-----------2-----
    B----2--------------2--- B----2-----------2---2---
    G-------------4--------- G-3----------------------
    D-4--------------------- D------------------------
    A----------------------- A------------------------
    E--------4-------------- E--------4---------------

    its bang on target.. took me 2 days! :rockon:
     
    bob-bobby likes this.
  3. shredhead

    shredhead New Member

    lol ... this must b hard work .... ur solo may seem close .... but itz not anywhere near to what he is playing + shani ki tab is extremely misleading for this song ..... i cant give out the original tab .... but drop me a line if u wanna jam with me ... i'll show you the how this is really played :cool: .... the solo of this song is very difficult .... and i havent started practising it as yet ... anyway .... peace ....
     
  4. aysh

    aysh -|h3 ori9in4| (ui!aris-|-

    hey anyone (especiaily shredhead) who can come up with the exact manner in which its to be played, i'll be really very thankful to that guy/gal

    and by the way i think the riffs are actually:

    e------2----------2----- e------2-----------2-----
    B----2----------2------- B----2-----------2------
    G-------------4--------- G-3------------3----------
    D-4--------------------- D------------------------
    A----------------------- A------------------------
    E----------------------- E------------------------
     
  5. nadish

    nadish Active Member

    Nice Tabs. Good Work, Keep it up man
     
  6. shak

    shak Harrr!

    huh!!! ... dont be such a miser shredhead ... if you cant help others then you dont belong here....and yeah PM me the original tabs, i'll see how "close" YOU are... and if you dont wanna lose your precious tabs then post your recording .... i wont be surprised if i dont get any reply :) :)
     
  7. aysh

    aysh -|h3 ori9in4| (ui!aris-|-

    hey shahrukh can u give this a try , shredhead seems to have disappeared (lol)
     
  8. shak

    shak Harrr!

    i have man.... they are almost good... i posted the intro to khamaj before.. all the time a barre is used to play that ... but here i dont see no barre... but they are pretty good to play just for fun
     
  9. aysh

    aysh -|h3 ori9in4| (ui!aris-|-

    Shahrukh if you have the later part plz post it . i love this song too much ! the intro you posted sounded great! :rockon:
     
  10. shak

    shak Harrr!

    thnx.... i have tabbed the rest of the song ...and i do remember that i have saved those tabs somewhere.. hmmmm ... lemme see... it was a long time ago ... you know what ... i'll go thru my old tab books and see if i can find them other wise i'll tab them again and post them here ..
    glad you liked the intro ... keeeeeeep rockin!!!
     
  11. aysh

    aysh -|h3 ori9in4| (ui!aris-|-

    hey shahrukh could u find ur tabs ? plz post them..
     
  12. shak

    shak Harrr!

    nop couldnt find em anywhere... guess i'll have to tab the whole song again. . :( :( ...
    give qwan tabs a try .. they are not toooo bad. otherwise you might have to wait for some time...
     
  13. aysh

    aysh -|h3 ori9in4| (ui!aris-|-

    no if the tabs are played with a barr then u'l have to do it.... otherwise i know the simple tabs pretty well. coz' i can't figure out whether or not a barr has been played :(
     
  14. shak

    shak Harrr!

    oh .... all right ... the intro is on barre .. but not the solo ...
     
  15. Quadrophenia

    Quadrophenia New Member

    shredhed is right about the tabs..the tabs arent correct..shallum is playing a different set of chords all together which are like normal chords by played ina different manner..i think its best working it out..which shredhed obviously has ;)
     
  16. vikramk

    vikramk New Member

    Thanks for Sharing the notations

    Thanks friend for sharing the notations of Khamaj
    it is my personal Fav.Song :rock:

    I'm an indian but i think music knows no bounds :beer: :beer: :beer:
    As i'm fan of EUPHORIA & OM as well as Strings, Fuzon & Junoon also
    :rockon:
     
  17. ahmadusman86

    ahmadusman86 New Member

    plz post the tabs n solo of khamaj plz
     

Share This Page