Khal Ho Na Ho tabs

Discussion in 'Hindi Guitar Tabs - Submit or Request' started by Eddy Jolicoeur, Dec 2, 2005.

  1. Eddy Jolicoeur

    Eddy Jolicoeur New Member

    Hi

    I am looking for the lyrics and guitar tabs of the song "Khal Ho Na Ho". Can anyone help please?
     
  2. anshphenomenon

    anshphenomenon Rape me :boff:

    hey buddy..
    we have plenty of tabs for this song here..
    one posted by ehsaan himself....
    plz check the forums..
     
  3. abhimanjrekar

    abhimanjrekar ----> Zhol-Man<----

    ehsaan from tht trio???? is he a member here??
     
  4. .:SpY_GaMe:.

    .:SpY_GaMe:. New Member


    yep i think therewas sticky thread abt that!!

    ie abt the news that ehsaan was in igt
     
  5. anshphenomenon

    anshphenomenon Rape me :boff:

    yes..
    hes a member here..
    hes also posted chords for Dil chahta hai songs..(understood)
    and also for kal ho na ho..
     
  6. falcon eyes

    falcon eyes New Member

    Har Ghadi Badal Raha Hai Roop Zindagi
    -------------------------12-10-------------------------
    -13--12-13--12-13--12-13-------13--12--10-12--10-12----
    -------------------------------------------------------
    -------------------------------------------------------
    -------------------------------------------------------
    -------------------------------------------------------

    Chaav Hai Kahhi Hai Dhoop Zidnagi
    -------------------------12-10-------------------------
    -13--12-13--12-13--12-13-------13--12--10-12--10-12----
    -------------------------------------------------------
    -------------------------------------------------------
    -------------------------------------------------------
    -------------------------------------------------------

    Har Pal Yahan, Jee Bhar Jiyo
    -------------------------------------------------------
    ----10--13-10---------10-------------------------------
    -12-------------10-12----12----------------------------
    -------------------------------------------------------
    -------------------------------------------------------
    -------------------------------------------------------

    Jo Hai Sama, Kal Ho Na Ho
    -------------------------------------------------------
    ----10--13-10------10---------11-10--------------------
    -12-------------12----10---10-------12-----------------
    -------------------------------------------------------
    -------------------------------------------------------
    -------------------------------------------------------

    Har Ghadi Badal Raha Hai Roop Zindagi
    Chaav Hai Kahhi Hai Dhoop Zidnagi
    Har Pal Yahan
    Jee Bhar Jiyo Jo Hai Sama
    Kal Ho Na Ho

    Chaahe Jo Tumhe Poore Dil Se
    -------13-12--10-10------------------------------------
    -12-13---------------13-10--12-13----------------------
    -------------------------------------------------------
    -------------------------------------------------------
    -------------------------------------------------------
    -------------------------------------------------------

    Milta Hai Woh Mushkil Se
    -------13-12--10-10------------------------------------
    -12-13---------------13-10--12-13----------------------
    -------------------------------------------------------
    -------------------------------------------------------
    -------------------------------------------------------
    -------------------------------------------------------

    Aisa Jo Koi Kahin Hai
    -------13-12--10-10------------------------------------
    -12-13---------------13-10--12-13----------------------
    -------------------------------------------------------
    -------------------------------------------------------
    -------------------------------------------------------
    -------------------------------------------------------

    Bas Vahi Sabse Hasin Hai
    -------13-12--10-10------------------------------------
    -12-13---------------13-10--12-13----------------------
    -------------------------------------------------------
    -------------------------------------------------------
    -------------------------------------------------------
    -------------------------------------------------------

    Us Haath Ko Tum Thaam Lo
    -------------------------------------------------------
    ----10--13-10---------10-------------------------------
    -12-------------10-12----12----------------------------
    -------------------------------------------------------
    -------------------------------------------------------
    -------------------------------------------------------

    Woh Meherbaan Kal Ho Na Ho
    -------------------------------------------------------
    ----10--13-10------10---------11-10--------------------
    -12-------------12----10---10-------12-----------------
    -------------------------------------------------------
    -------------------------------------------------------
    -------------------------------------------------------

    Har Pal Yahan, Jee Bhar Jiyo
    -------------------------------------------------------
    ----10--13-10---------10-------------------------------
    -12-------------10-12----12----------------------------
    -------------------------------------------------------
    -------------------------------------------------------
    -------------------------------------------------------

    Jo Hai Sama, Kal Ho Na Ho
    -------------------------------------------------------
    ----10--13-10------10---------11-10--------------------
    -12-------------12----10---10-------12-----------------
    -------------------------------------------------------
    -------------------------------------------------------
    -------------------------------------------------------
    have fun............ :beer:
     
  7. raviction

    raviction New Member

    dude...ur tabs r relllly guddd mannnn.....cheers!!!!!!!
     

Share This Page