Karam - Tinka Tinka both Guitar chords & tabs

Discussion in 'Hindi Guitar Tabs - Submit or Request' started by ROKR, Nov 28, 2005.

  1. ROKR

    ROKR New Member

    Play the tabs with the song for timing.
    If any one is having chords of this then pl do paste them.


    D#m-------------C#------------------B
    Tinka - Tinka | zarra zarra | hai roshni se| Jaise bhara aa aaa|
    e|---------------|---------------|-------------------|------------------|
    B|-11-----------|---------------|-------------------|------------------|
    G|----10-8-10--|-10-8--8-10-|-8-8-8-10--8--|-6-6--6-6-8-10-|
    D|---------------|---------------|--------------------|------------------|
    A|---------------|----------------|--------------------|------------------|

    D#m--------------C#-----------B--------A#m
    har dil mein arman hote to hain| bas koi | samjhe zara|
    e|---------------------------------|------------|---------------|
    B|-----------------11-9----------|-----13-11-|-----9---------|
    G|-11-11-11-11-------8-11-10-|-11---------|-11---11-10-|
    D|--------------------------------|-------------|---------------|
    A|---------------------------------|-------------|---------------|

    D#m-----------A#m---C#---D#m
    dil pe ek naya | sa nasha | chha gaya
    kho raha tha jo | khawab lot | aa gaya |
    X2
    e|-8----------------|----------------------|
    B|---9--------------|-------------9-11-11-|
    G|------10-10-8---|-8-10-10-----------|
    D|------------------|----------------------|

    A#m------------D#m
    yeh jo ehsas hai jo karar hai |
    kya issi ka naam pyar hai |
    X2
    e|-------------11--9-8----------------8---|
    B|-11-11-11-----------11-|-9-9-11------| gap
    G|------------------------------------------|
    D|------------------------------------------|
    X2
    e|-------------11--9-8----------------8---|
    B|-11-11-11-----------11-|-9-9-11------|
    G|------------------------------------------|
    D|------------------------------------------|

    D#m---C#---B----A#m
    poochhe dil tham ke zara
    e|----------------------------|
    B|----13-11-|-----9---------|
    G|-11--------|-11---11-10-|
    Pl comment
     
  2. amitvashist

    amitvashist New Member

    Thanks ROKR

    your chords proved much usefull.

    cheers" :beer:
     
  3. iyla

    iyla New Member

    Thnax buddy ur Tabs + chords combo is really good
    Post more such songs
     
    ROKR likes this.
  4. zara_love

    zara_love New Member

    wat is the strumming pattern for this song
     
  5. ROKR

    ROKR New Member

    Tabs positon has changed alot from my original post.
    I dont know why it changes after submission.
    It might lead to some misunderstanding. I guess this time
    the the tabs will look the same way after submission.


    Play the tabs with the song for timing.
    If any one is having chords of this then pl do paste them.


    D#m-------------C#------------------B
    Tinka - Tinka | zarra zarra | hai roshni se| Jaise bhara aa aaa|
    e|---------------|----------------|----------------|-------------------|
    B|-11-----------|----------------|----------------|-------------------|
    G|----10-8-10-|-10-8--8-10-|-8-8-8-10--8-|-6-6--6-6-8-10-|
    D|---------------|----------------|----------------|-------------------|
    A|---------------|----------------|----------------|-------------------|

    D#m--------------C#-----------B--------A#m
    har dil mein arman hote to hain| bas koi | samjhe zara|
    e|------------------------------------|-----------|----------------|
    B|------------------11-9------------|---13-11-|-----9---------|
    G|-11-11-11-11-------8-11-10-|-11--------|-11---11-10-|
    D|-----------------------------------|------------|----------------|
    A|------------------------------------|-----------|----------------|

    D#m-----------A#m---C#---D#m
    dil pe ek naya | sa nasha | chha gaya
    kho raha tha jo | khawab lot | aa gaya |
    X2
    e|-8---------------|--------------------|
    B|---9-------------|----------9-11-11-|
    G|------10-10-8-|-8-10-10----------|
    D|-----------------|---------------------|

    A#m------------D#m
    yeh jo ehsas hai jo karar hai |
    kya issi ka naam pyar hai |
    X2
    e|-------------11--9-8------|----------8---|
    B|-11-11-11-----------11-|-9-9-11------| gap
    G|----------------------------|---------------|
    D|----------------------------|---------------|
    X2
    e|-------------11--9-8------|----------8-|
    B|-11-11-11-----------11-|-9-9-11----|
    G|----------------------------|-------------|
    D|----------------------------|-------------|

    D#m---C#---B----A#m
    poochhe dil tham ke zara
    e|-----------------------------|
    B|----13-11-|-----9---------|
    G|-11--------|-11---11-10-|
    Pl comment
     
  6. ROKR

    ROKR New Member

    zara_love if u wanna know the strumming pattern of any song then try to play the chords with actual song and follow the beats of the song.
    Or first try to play the beats of the song with ur hands on table while playing the song on ur pc or music system. once u feel that u have grabbed the beats properly. then transpose these hand made beats into rythm on guitar or strumming.
    I guess u are getting what i am trying to say. Try this it will really help u alot for any song.
     
  7. ROKR

    ROKR New Member

    Thanx iyla !!
    When ever i will find time will post more and more songs
    Or u can suggest some!!
    Thanx!!
     
  8. jim4u18

    jim4u18 New Member

    good job man n zara rokr is rite find out the strummin pattern on ur own this will help u a lot
     
  9. rapunzel

    rapunzel New Member

    Nice work ROKR
    Ur chords +tabs combo helped me alot.
    I really nede that song thanx once again
    reps for u!!
     
    ROKR likes this.
  10. muntazir ali

    muntazir ali New Member

    ROKR bro
    i just can decide how should i thanx u for tabbing such a beautiful song man GOD bless u thats all i can say and tabbs were perfect than i expected great job bro here is the link of my recording of tinka tinka if anybody wants to understand the overall pattern plz listen to this recording here is the link http://www.esnips.com/web/FORGUITARISTS/
     
  11. blackmagician

    blackmagician New Member

    GREAT TABS !!! easy for a amateur guitarist like me .. thanx !!
     
  12. altamashnayyer

    altamashnayyer New Member

    Dude, these tabs and chords are quite impressive. Good job. Keep it up.
     
  13. KShan

    KShan New Member

    Tinka Tinka

    Hey

    Nice work man..!!

    Cheers
     

Share This Page