Kannada Song - Ninidale Ninindale (Milana)

Discussion in 'Kannada Guitar Tabs - Submit or Request' started by Vijeyez, Dec 28, 2007.

  1. Vijeyez

    Vijeyez New Member

    As requested by Sudy999 and most awaited by all kannadigas....!

    Here it is Ninindale Ninidale - Milana Kannada movie Song

    Intro...

    E|---------------------------------|------------------------
    A|---------------------------------|------------------------
    D|---------------------------------|------------------------
    G|---------------------------------|--------------10-11-10--
    B|8-9--8-9---8-9--8-9-------------------11-99-8-9-----------
    E|---9----9-----9----11---99-13-11-99-8---------------------
    Intro.. He hee.. Thana naa na

    E|---------------------------------|--------------------
    A|---------------------------------|--------------------
    D|11---------11---------11-11---11-11-10-10-11----------
    G|---10-88------10-88---------88------------------------
    B|------------------------------------------------------
    E|------------------------------------------------------
    Ninindale... Kanasondhu...

    E|---------------------------------|--------------------
    A|---------------------------------|--------------------
    D|11---------11-----------11-11---11-11-10-10-11--------
    G|---10-8------10-10-8---------88-----------------------
    B|-----9------------------------------------------------
    E|------------------------------------------------------
    Ninindale... Manasindhu...

    E|---------------------------------|--------------------
    A|---------------------------------|--------------------
    D|------------------------------------------------------
    G|------10--------10--------10--------------------------
    B|9-9-8----8--9-8----8--9-8----8------------------------
    E|------------------------------------------------------
    E edheyalli....

    E|---------------------------------|--------------------
    A|---------------------------------|--------------------
    D|------------------------------------------------------
    G|-------------------10-11-10---------------------------
    B|9-9------11-99-8-9------------------------------------
    E|---999-8----------------------------------------------
    Nannedhrulli...

    E|---------------------------------|--------------------
    A|---------------------------------|--------------------
    D|------------------------------------------------------
    G|------10--------10--------10--------------------------
    B|9-9-8----8--9-8----8--9-8----8------------------------
    E|------------------------------------------------------
    Ninna Thutiyalli....

    E|---------------------------------|--------------------
    A|---------------------------------|--------------------
    D|-----------------------------------11-10--------------
    G|-------------------10-11-10-8-10-8--------------------
    B|9-9------11-99-8-9------------------------------------
    E|---999-8----------------------------------------------
    Na ninthalle...

    E|---------------------------------|--------------------
    A|---------------------------------|--------------------
    D|11---------11---------11-11---11-11-10-10-11----------
    G|---10-88------10-88---------88------------------------
    B|------------------------------------------------------
    E|------------------------------------------------------
    E mayege...

    E|---------------------------------|--------------------
    A|---------------------------------|--------------------
    D|11---------11-----------11-11---11-11-10-10-11--------
    G|---10-8------10-10-8---------88-----------------------
    B|-----9------------------------------------------------
    E|------------------------------------------------------
    Ninindale...
     
  2. sudy999

    sudy999 New Member

    Thanks

    Oh cool work man...thanks!!!...it was definitely most awaited by me...
     
  3. arunole

    arunole New Member

    Hey thanks buddy ...i ll try it....
     
  4. abygailann

    abygailann Member

    Ninindale

    Hi, it was a great job. I am a great fan of this song and the singer too. Sonu ji is my most favourite singer. I am aTamilian and not kannada but I love Kannada songs. so please, I need chords for this song Ninindale. It would be a great help if someone post me the chords.I am a Malaysian too. Thanks in advance.............
     

Share This Page