Kangal Irandal Tabs Please

Discussion in 'Tamil Guitar Tabs - Submit or Request' started by parsapd, Jun 21, 2010.

  1. parsapd

    parsapd New Member

    Hi,

    Can somebody please give me full tabs for "Kangal Irandal" song from subramaniyapuram.

    Im searching for the tabs all through the google. but i got only the intro part posted by our member(xyz.indianguitartabs.com/showthread.php?t=34675&page=13)

    Can someone please please post the full tab of the song..its really nice to play in guitar.

    I Youtube i found this video..its awesome.

    xyz.youtube.com/watch?v=FtVkfc2JAZw

    Note:Replace Xyz with WWW

    Regards,
    Prasanna
     
  2. chiti2ran

    chiti2ran New Member

    The video you posted was ok. but this video will help you play the tabs for the song..
    this video shows the piano keys.. if you know the equivalent keys in guitar you can play it..


    youtube.com/watch?v=ep4NURsy8bs
     
  3. acchub

    acchub New Member

    can someone plzzzzzzzzzzzzzzzz post kangal irandal guitar tabs?
     
  4. roentgen

    roentgen Member

    Code:
    
    e|--------------------------------------------------------------------------------------
    b|--------------------------------------------------------------------------------------
    g|--------------------------------------------------------------------------0-----------
    d|-----1--0--1-------1--0-----1--0--1-------1--0-----1--0--1----------------------1--0--
    a|--3----------------------3----------------------3----------------1--0-----------------
    e|--------------1----------------------1----------------------1----------1-----1--------
    
    
    
    e|-------------------------------------------------------
    b|-------------------------------------------------------
    g|------------------------------------------------0------
    d|--------------------0----------------------------------
    a|--1--3--3--3--3--3-----1----1--0--0--------------------
    e|-------------------------------------1----1--1---------
    
     
  5. atc

    atc New Member

    try this

    e --0-3-2-3-5----3-2-0-3-2-3-5----3-2-0-3-2-3-5--11-10-5-7-5-3-2
    e --0-3-2-3-5----3-2-0-3-2-3-5----3-2-0-3-2-3-5--11-10-5-7-5-3-2
     
  6. rubbhan

    rubbhan New Member

    yes me too wanted to have full tabs of kangal irandal...pls post it if anyone have...
     
  7. arundas97

    arundas97 New Member

    thanks man this one sounds great from my point of view
     
  8. arundas97

    arundas97 New Member

    thanks man.it sounds great fro mypoint of view.
     
  9. SATHYA167

    SATHYA167 New Member

Share This Page