Kandisa Indian Ocean Guitar Tabs

Discussion in 'Hindi Guitar Tabs - Submit or Request' started by vidhansinghai, Jun 25, 2004.

  1. vidhansinghai

    vidhansinghai New Member

    Hi,

    I play a part of guitar work in Kandisa. I'll be posting it soon.

    As of now the intro part is this. Please try and tell me if it's corect:

    Code:
    Immediate start (slow piece)
    e---7-------7------------------
    B-------7-------7--------------
    G-----9---9---9---9------------
    Thanks
    Vidhan
     
  2. stendec

    stendec New Member

    keep up the good work dude

    waitin 4 u rpost
     
  3. anuj

    anuj New Member

    the intro is correct buddy
    waiting for the rest of the song
    keep up the good work
     
  4. rammy

    rammy Guitar=Dope ; Me=Addict

    this is my fav. song waiting 4 the rest. also hav u got tabs 4 hai tamasha yeh kya 4rm he same album?
     
  5. anuj

    anuj New Member

    ya my fav to
    n what about tabs for hile le le
    indian ocean rules :rule:
     
  6. vidhansinghai

    vidhansinghai New Member

    Finally...

    Hi guys,

    Finally I got the time to tab this god song.
    Enjoy the tabs. And guys please try the chords for the same. Thanks.

    There are many places in which you have to mute the string immediately after playing it. Does anyone know the tab notation of such a muting?

    Code:
    Kandisa - Indian Ocean
    TABBED BY: Vidhan Singhai 
    
    e--7-------7--------------------------------------------------------------------
    B------7-------7----------------------------------------------------------------
    G----9---9---9---9--continue the same pattern for the intro---------------------
    D-------------------------------------------------------------------------------
    A-------------------------------------------------------------------------------
    E-------------------------------------------------------------------------------
    
    Kandisa alahaye kandisa ehsaana
    kandisa alahaye kandisa ehsaana
    
    Aalam balam aalam
    Amenu aamen
    shrihaar maar yo se
    almaduba kudisa
    angene dhanusa
    nehave dukhrana
    
    ** percussions here with bass guitar **
    
    Aalam balam aalam
    Amenu aamen
    shrihaar maar yo se
    almaduba kudisa
    angene dhanusa
    nehave dukhrana
    
    Kandisa alaha kandisa ehsaana
    kandisa la mayiosa israaha maalee
    
    e-------------------------------------------------------------------------------
    B--8---8---8[3]-8h10-10-10-7-7-7h8-8---8---8---8[3]-8h10-10-10-7-7-7h8-8--------
    G----7---7-------------------------------7---7----------------------------------
    D-------------------------------------------------------------------------------
    A-------------------------------------------------------------------------------
    E-------------------------------------------------------------------------------
    
    e-------------------------------------------------------------------------------
    B--8---8---8[3]-8h10-10-10-7-7-7h8----------------------------------------------
    G----7---7----------------------------------------------------------------------
    D-------------------------------------------------------------------------------
    A-------------------------------------------------------------------------------
    E-------------------------------------------------------------------------------
    
    ** beats full flow **
    
    ** repeat aalam baalam...israaha maalee **
    
    ** "israaha maale" in classical style **
    
    ** ???????????????????? **
    ** missing one piece here; can't figure out this part (1:06 minutes long) **
    ** i.e. after 1:06 of final "eee" of classical "israha maale" begins the **
    ** following part. **
    
    e-------------------------------------------------------------------------------
    B-------------------------------------------------------------------------------
    G------4-4-44-4-----5-5-5-4-4-----7-5-4-5-5-----7-5-4-5-5-----------------------
    D--5-7----------5-7-----------5-7-----------5-7---------------------------------
    A-------------------------------------------------------------------------------
    E-------------------------------------------------------------------------------
    
    e-------------------------------------------------------------------------------
    B-------------------------------------------------------------------------------
    G------4-7-5-4h5h7-7-7------4-7-5-4h5h7-7-7-------------------------------------
    D--5-7------------------5-7-----------------------------------------------------
    A-------------------------------------------------------------------------------
    E-------------------------------------------------------------------------------
    
    e-------------------------------------------------------------------------------
    B-------------------------------------------------------------------------------
    G--7-7-9-9-7-7-10-10-7-9-7-7-9-9-7-7-10-10-7-9-7-7-9-9-7-7-10-10-7-9-9/12-12[5]-
    D-------------------------------------------------------------------------------
    A-------------------------------------------------------------------------------
    E-------------------------------------------------------------------------------
    
    e--------------------7----7----7--------7----7----7-----------------------------
    B-----7-8-8/10 10[5]---10---10--10-8[8]---10---10---10-8[8]---------------------
    G---9---------------------------------------------------------------------------
    D-------------------------------------------------------------------------------
    A-------------------------------------------------------------------------------
    E-------------------------------------------------------------------------------
    
    e-------------------------------------------------------------------------------
    B--8---8---8[3]-8h10-10-10-7-7-7h8-8---8---8---8[3]-8h10-10-10-7-7-7h8-8--------
    G----7---7-------------------------------7---7----------------------------------
    D-------------------------------------------------------------------------------
    A-------------------------------------------------------------------------------
    E-------------------------------------------------------------------------------
    
    e-------------------------------------------------------------------------------
    B--8---8---8[3]-8h10-10-10-7-7-7h8----------------------------------------------
    G----7---7----------------------------------------------------------------------
    D-------------------------------------------------------------------------------
    A-------------------------------------------------------------------------------
    E-------------------------------------------------------------------------------
    
    ** in chorus, full beats **
    
    Aalam balam aalam
    Amenu aamen
    shrihaar maar yo se
    almaduba kudisa
    angene dhanusa
    nehave dukhrana
    
    Kandisa alaha kandisa ehsaana
    kandisa la mayiosa israaha maalee
    
    ********************************************************************************
    
    The notes/melody for the song goes as follows:
    
    e-------------------------------7-8-7-------------------7-8-7-------------------
    B---8-8-8-----7-7h8------8-8-10-------10-8---------8-10-------10-8--------------
    G-7--------------------7-------------------------7------------------------------
    D-------------------------------------------------------------------------------
    A-------------------------------------------------------------------------------
    E-------------------------------------------------------------------------------
     aalam baalam aalam    amenu amee.......n      sriha maar yo.....se
    
    e--7-8-7---------------------------------------------7--------------------------
    B--------10-8-10-8-7h8~-----8-10-8-7-8-7--------8-10---10-8-7-8-----------------
    G----------------------------------------9----7---------------------------------
    D-------------------------------------------------------------------------------
    A-------------------------------------------------------------------------------
    E-------------------------------------------------------------------------------
      almaduba    kudisaaaaa    angene dhanusa    nehave dukhraana...
    
    e-7-7-8-7-------7---7-7-8-7-------7---7-7-8-7-10-8-7-----------7-8-7------------
    B---------10-10-------------10-10-------------------------8-10-------10~--8~----
    G-------------------------------------------------------------------------------
    D-------------------------------------------------------------------------------
    A-------------------------------------------------------------------------------
    E-------------------------------------------------------------------------------
     kandisa aalaha    kandisa ehsaana    kandisa lamariyosa israaha maalee....e
    
    ********************************************************************************
     
  7. pavanbits

    pavanbits New Member

    Kandisa tabs

    Hi,
    I am Pavan..been a member of IGT since december...i got my new guitar and started learning in jan 2005...and firstly lemme thank this amazing group "IGT"..three cheers to it...:rock: :beer:

    i have tried out that approx. 1 min guitar tab which comes around 4.40 min in kandisa song. I am just posting the beginning of tht tab...i wud like to hear some comments before i wud actually go about posting the next esp from the experts out here...

    e-----------------------------------------------------------
    B-----------------------------------------------------------
    G-----------------------------------------------------------
    D--2-4--2-4----4p3--4-2-4-----------------------------
    A-------------------------------4----1/4-1/4-1/4-5-----
    E-----------------------------------------------------------

    P.S: this song has a special additions which cannot be tabbed but on hearing one can bring the effect..so just hear and fill in those things like vibrating at the end of a tab( gamaka ) kind....
     
  8. kaushikgoa

    kaushikgoa New Member

    Kandisa end solo Tabs - With accompanying video

    Here are the tabs for the end solo of kandisa.
    The corresponding video is on youtube at
    http://www.youtube.com/watch?v=B_AVN8fZVgo

    Use drop D tuning (6th string is D instead of E)
    Note that these tabs are different from the ones in the video but should produce
    the same "sound" (Just that in the tabs, I have utilized all strings optimally
    without being on one string for too long. Also, I have got rid of some errors
    in the video)

    At different places, I have indicated the time which basically means the time in
    the video where this part of the tabs is played.

    I have tried to remove typos but let me know if there are any.

    Notations:
    xsy ==> slide from fret x to fret y.
    xb1 ==> bend fret x 1 semi-tone high.
    xB1 ==> Bend fret x 1 semi-tone high and back to original.
    xB1v ==> Bend fret x 1 semi-tone high and back to original and then vibrate.
    MxN ==> Pick fret M, N times eg. 10x3 ==> pick fret 10 three times.
    zero(0)==> open string.
    v==> vibrato (eg. 4v ==> vibrate fret 4 of the string)


    Time: 00:00
    E------------------------------------------------------------------------------
    B------------------------------------------------------------------------------
    G------------------------------------------------------------------------------
    D-------4---4v------4-4-4B1v----------------------------------------------
    A--3s5---7----------------------7-5-7-4v----------------------------------
    D------------------------------------------------------------------------------

    Time:00:08
    E----------------------------------------------------------------------------------
    B----------------------------------------------------------------------------------
    G----------------------------------------------------------------------------------
    D----------------------------------------------------------------------------------
    A--------------------------------------------------------------------------5x9---
    D--5s9-9--5s9-9-9----5s9-9--5s9-9-9----5s9-9--5s9-9-9---------

    ** start of base part
    E------------------------------------------------------------------------------
    B------------------------------------------------------------------------------
    G------------------------------------------------------------------------------
    D------------------------------------------------------------------------------
    A----5-5-5-5-5-5-5-5-----------------------------------------------------
    D--0---------------------------------------------------------------------------
    ** End of base part

    Time: 00:18
    E------------------------------------------------------------------------------
    B------------------------------------------------------------------------------
    G------------------------------------------------------------------------------
    D----7-5--5-7-5--5-7-5-4-4-4-4---------------------------------------
    A--5---------------------------------------------------------------------------
    D------------------------------------------------------------------------------

    <Put base part as above>

    Time: 00:27
    E------------------------------------------------------------------------------
    B------------------------------------------------------------------------------
    G------------------------------------------------------------------------------
    D----7-5--5-7-5--5-4--5s7-5-4-4-4-4--------------------------------
    A--5--------------------------------------------------------------------------
    D------------------------------------------------------------------------------

    <Put base part as above>

    Time: 00:35
    E-------------------------------------------------------------------------------
    B-------------------------------------------------------------------------------
    G-------------------------------------------------------------------------------
    D-------7-9----9--9--9-9-9-9--7x9--7x9-------------------------------
    A--5-7-------------------------------------------------------------------------
    D-------------------------------------------------------------------------------

    Time: 00:44
    E------------------------------------------------------------------------------
    B------------------------------------------------------------------------------
    G------------------------------------------------------------------------------
    D------7-9----9-9-9-9-9-9-9-9-9-11-9---7x9--7x11---------------
    A-5-7-------------------------------------------------------------------------
    D------------------------------------------------------------------------------

    Time: 00:53
    E-----------------------------------------------------------------------------
    B-----------------------------------------------------------------------------
    G------4-6---6x13---6x11-----------------------------------------------
    D-2-4-----------------------------------------------------------------------
    A-----------------------------------------------------------------------------
    D-----------------------------------------------------------------------------


    E----------------------------------------------------------------------------
    B----------------------------------------------------------------------------
    G--6x11----7x11---7x10----------------------------------------------
    D----------------------------------------------------------------------------
    A----------------------------------------------------------------------------
    D----------------------------------------------------------------------------

    Time: 01:05
    E----------------------------------------------------------------------------
    B----------------------------------------------------------------------------
    G--9-7--6-7-6-7-6-7--6-6-6-6------6-7-9-7-6-7-7---------------
    D----------------------------------------------------------------------------
    A----------------------------------------------------------------------------
    D----------------------------------------------------------------------------

    Time:01:10
    E----------------------------------------------------------------------------------------------------
    B--------7-7-7-7-7----------8-8-8-7-7-----------10-8-7-8-8------------10-8-7-8-8---
    G--7-9---------------7---7-9--------------7----7-9----------------7----7-9----------------7-
    D----------------------------------------------------------------------------------------------------
    A----------------------------------------------------------------------------------------------------
    D----------------------------------------------------------------------------------------------------

    Time:01:18
    E-------------------------------------------------------------------------------
    B--------7-10-8-7-8-10x4-----------7-10-8-7-7-8-10x4------------
    G--7-9------------------------------7-9-------------------------------------
    D------------------------------------------------------------------------------
    A------------------------------------------------------------------------------
    D------------------------------------------------------------------------------

    Time:01:22
    E-----------------------------------------------------------------------------------------------
    B--10-12-12--10-14-14--10-12-12-----10-12-12--10-14-14--10-12-12---
    G----------------------------------------------------------------------------------------------
    D-----------------------------------------------------------------------------------------------
    A-----------------------------------------------------------------------------------------------
    D-----------------------------------------------------------------------------------------------


    E-----------------------------------------10x8------------------------------
    B--10-12-12--10-14-14--10-12--------------------------------------
    G------------------------------------------------------------------------------
    D------------------------------------------------------------------------------
    A------------------------------------------------------------------------------
    D------------------------------------------------------------------------------

    Time:01:31
    E--7-9-10-10s12---12x5----14-14-12-12--14-14-12-12--14-12--10x10-----
    B-------------------------------------------------------------------------------------------------
    G-------------------------------------------------------------------------------------------------
    D-------------------------------------------------------------------------------------------------
    A-------------------------------------------------------------------------------------------------
    D-------------------------------------------------------------------------------------------------

    Repeat this 2 times. Time: 01:42
    E--10-10-----10-10---------10-10--10s12-12-9-9-10-10-10-10----------
    B----------10----------10-10----------------------------------------------------------
    G------------------------------------------------------------------------------------------
    D------------------------------------------------------------------------------------------
    A------------------------------------------------------------------------------------------
    D------------------------------------------------------------------------------------------

    Time: 01:50
    E--10-10-----10-10------10-10--10s12-12-9-9-10-------------------
    B--------10--------10-10------------------------------------------------------
    G----------------------------------------------------------------------------------
    D----------------------------------------------------------------------------------
    A-----------------------------------------------------------------------------------
    D-----------------------------------------------------------------------------------
     
  9. kaushikgoa

    kaushikgoa New Member

    suggested modification to intro

    Mybe play the intro one tone lower ie.

    E---5--------------5---------------------
    B--------5---------------5---------------
    G-----7----7---------7----7------------

    Or, its equivalent

    E----------------------------------------
    B---10---------------10---------------
    G-------7--9--7---------7--9--7-----
     
  10. laddu

    laddu New Member

    Hi Kaushik,

    Superb ..... I've been friends with the band over the last 8 years or so .... very few actually play Indian Ocean ...... Sushmit is the best ..... U've done a wonderful job ..... Whats next ??
    Tab Kaun .....
     
  11. therewat

    therewat New Member

    Hey good stuff man
     
  12. enigmatic

    enigmatic New Member

    I love INDIAN OCEAN's SONG
    one the best indian rock fusion band \m/

    great wrk dude
     

Share This Page