kal ho naa ho tabs

Discussion in 'Hindi Guitar Tabs - Submit or Request' started by beginner_lavina, Jul 1, 2004.

  1. holla! these tabs sound gr8 on the keyboard this is the first song ive tabbed

    E|-8-7-8-7-8-7-8-12-10-8-7-6-7-6-7-6-------------
    B|--------------------------------------------------
    G|--------------------------------------------------
    D|--------------------------------------------------
    A|--------------------------------------------------
    E|--------------------------------------------------
    G F# G F# G F# G B A G F# F F# F F#
    Har Ghadi Badal Rahi Hai Dhoop Zindagi
    Chaw Hai Khabi Khabi Hai Dhoop Zindagi

    E|-3-5-8-5---------1-3-5-3-------3-5-8-5---------
    B|-------------------------------------------------
    G|-------------------------------------------------
    D|-------------------------------------------------
    A|-------------------------------------------------
    E|-------------------------------------------------
    D E G E............C D E D............ D E G E
    Har Pal Yaha Jee Bhar Jiyo Jo Hai Samaa

    E|---8-6-6-5-3------------------------------------
    B|-------------------------------------------------
    G|-------------------------------------------------
    D|-------------------------------------------------
    A|-------------------------------------------------
    E|-------------------------------------------------
    G F F E D
    Kal Ho Naa Ho
     
  2. raghavsomani

    raghavsomani New Member

    Hi lavina. Nice job with the notes. Im a keyboardist too...and i love experimenting with chords. its a nice way of writing the notes. Its about time someone showed some keyboard to these guitarists!! Thanks for the song.
    The chords for the song would be...

    G Bm
    Har Ghadi Badal Rahi Hai Dhoop Zindagi
    G Bm
    Chaw Hai Khabi Khabi Hai Dhoop Zindagi
    C G C
    Har Pal Yaha Jee Bhar Jiyo Jo Hai Samaa
    F G
    Kal Ho Naa Ho

    Try playing these chords on your left hand. You ll love it!!!
    try to use a tempo around 70-75. The beat would be a foxtrot if you like slowy boring type...or a 16 or 8 beat for a slightly more enjoyable version. Try it out and let me know. I think you ll enjoy this

    Raghav
    raghavsomani@hotmail.com
     
  3. MARS

    MARS Mars Ji...Finally!!!!!

    Hi Raghav...
    Dont post u r mal id on the site..
    Its not permitted boss..
     
  4. hiya raghav, thx. i dunno how 2 play chords thats y ive posted tabs thx nw
     
  5. raghavsomani

    raghavsomani New Member

    Hi lavina.
    Well thats ok if you dont know how to play chords. Hopefully your learning and youll really enjoy it once you know how to play the basic ones atleast.
    Best of luck.

    Raghav
     
  6. bob-bobby

    bob-bobby Extinct or Banned!

    good work , keep it up....
     
  7. :d

    thx :D :)
     
  8. orbis_006

    orbis_006 New Member

    hey..am not convinced of the last line..else is perfect.
    KAL HO NAA HO..?????? pls help
     
  9. faiqrock

    faiqrock XaiQ

    Kal Ho na Ho - Kal Ho na Ho


    E|-----------------------10-8---------------------------------------|
    B|-11--10-11--10-11-10-11------10--10---8-10-8-10-------------------|
    G|------------------------------------------------------------------|
    a# a a# a a# a a#dc a a gaga
    Har Ghadi Badal Rahiii Hai Roop Zindagi
    Chaav Hai Kahhi kabhii Hai Dhoop Zidnagi

    E|-----------6------------------------------------------------------|
    B|--6---8-------8-------6---8-6-------------------------------------|
    G|------------------8-----------------------------------------------|
    f g a# g d# f gf
    har pal yahaaN jee bhar jiyo

    E|---------6--------------------------------------------------------|
    B|--6--8------8---9---8------6--------------------------------------|
    G|------------------------8-----------------------------------------|
    f g a# g g# g d# f
    jo hai samaa kal ho na ho

    E|-5-6----8---5--------------------5-6-8--5-------------------------|
    B|-------------6--------------6---------------6-----------8---------|
    G|------------------8-7-----8---------------------8-7-8-------------|
    aa# c af d#d d# f, aa# c a f d#dd# g
    chaahe jo tumhein poore dil se, miltaa hai vo mushkil se

    E|------11--10--8----------------------11-10-8----------------------|
    B|-10-11---------11---10-10-11---10-11----------11-10-10-11-8-6-----|
    G|------------------------------------------------------------------|
    a a# d# d c a# a a a#, a a# d# d c a# a a a#gf
    aisaa jo koi kahin hai, bas vohi sabse hasin haiii

    E|--------6------------------------6--------------------------------|
    B|-6-8------8-------6-8--6---6--8----8----9--8--------6-------------|
    G|---------------8-------------------------------8-----------------|

    f g a# g d# fg f, f g a# g g# g d# f
    us haath ko tum thaam lo, vo mehrbaan kal ho na ho

    i dont know much guitar but i think these r better....try it n tell me
     
  10. J.J

    J.J The Guitar God

    bohat he aala kaam yaar bohat he zabardast
     
  11. faiqrock

    faiqrock XaiQ

    KIS ka???JJ..yeh tu bataya nai:D
     
  12. raviction

    raviction New Member

    k nice wrk but doesnt wrk on guitar
     
  13. UjSen

    UjSen *#!EVIL*!!

    @Lavina
    NICE WORK

    reps!
     
  14. .:SpY_GaMe:.

    .:SpY_GaMe:. New Member

    arey lavina nek surely kuch 420 kar ke yeh tabs payi....lol
     
  15. guitar_kid

    guitar_kid New Member

    awesome thx!!
     
  16. chal phut! :phbbt:
     
  17. .:SpY_GaMe:.

    .:SpY_GaMe:. New Member

    s :p: :p:

    by the way do u play guitar lavina?? :think:
     
  18. d-uhh thats y im in this forum? common sense, the only thing which you lack
     

Share This Page