Kal Ho Na Ho (Complete tabs) tabbed for salmaan_farooq :)

Discussion in 'Hindi Guitar Tabs - Submit or Request' started by pnainani03, May 9, 2006.

  1. pnainani03

    pnainani03 Request and I'll tab

    Hey guys, hope you enjoy this salmaan bhai.

    Song: Kal Ho Na Ho
    Movie: Kal Ho Na Ho
    Tabbed by: Paras Nainani

    Intro
    |--6-9-9-9-9-9-9-9-9-9-9-9-9-8-8-8-8-8-8------
    |------------------------------------------------
    |------------------------------------------------
    |------------------------------------------------
    |------------------------------------------------
    |------------------------------------------------

    |--6-9-9-9-9-9-9-9-9-9-9-9-9-11-11-11-11-13-13-13-13
    |-----------------------------------------------------------------
    |-----------------------------------------------------------------
    |-----------------------------------------------------------------
    |-----------------------------------------------------------------
    |-----------------------------------------------------------------

    |--6-9-15---6-9-11-13-11-11-11-13-13-13-13
    |-----------------------------------------------------------------
    |-----------------------------------------------------------------
    |-----------------------------------------------------------------
    |-----------------------------------------------------------------
    |-----------------------------------------------------------------

    Chorus
    |------------------0-----------------
    |-1-0-1-0-1-0-1---3---0---0---0-
    |-----------------------2---2---2---
    |-------------------------------------
    |-------------------------------------
    |-------------------------------------
    Har Ghadi Badal Raha Hai Roop Zindagi

    |-------------------0----------------
    |--1-0-1-0-1-0-1---3---0---0---0
    |------------------------2---2---2--
    |-------------------------------------
    |-------------------------------------
    |-------------------------------------
    Chaav Hai Kahhi Hai Dhoop Zidnagi

    |----------------------
    |------1--------------
    |--0-2---2-----0-2-0
    |------------3------
    |---------------------
    |---------------------
    Har Pal Yahan Jee Bhar Jiyo

    |----------------------------
    |------1---------------------
    |--0-2---2-0---------3-2-0
    |--------------3---3--------
    |----------------------------
    |----------------------------
    Jo Hai Sama Kal Ho Na Ho

    And then repeat the chorus

    Funky music
    |-----0-----1-0---------------------------
    |-------3-1-----3-1-----------------------
    |------------------------------------------
    |------------------------------------------
    |------------------------------------------
    |------------------------------------------

    |----------0-----1----------
    |------------3-1-------------
    |-----------------------------
    |-----------------------------
    |-----------------------------
    |-----------------------------

    |-----0-----1-0---------------------------
    |-------3-1-----3-1-----------------------
    |------------------------------------------
    |------------------------------------------
    |------------------------------------------
    |------------------------------------------

    |----------0-----3-1---------
    |------------3-1-------------
    |-----------------------------
    |-----------------------------
    |-----------------------------
    |-----------------------------

    |----3-3-5-8-7-5-3ā€”6-5-3-1----
    |------------------------------------
    |------------------------------------
    |------------------------------------
    |------------------------------------
    |------------------------------------

    |-1-3-5-3-1-3--------------
    |----------------------------
    |-----------------------------
    |-----------------------------
    |-----------------------------
    |-----------------------------

    |----3-3-5-8-7-5-3ā€”6-5-3-1----
    |------------------------------------
    |------------------------------------
    |------------------------------------
    |------------------------------------
    |------------------------------------

    |-1-3-5-3-1----------------
    |-------------3--------------
    |-----------------------------
    |-----------------------------
    |-----------------------------
    |-----------------------------

    |-10-10-10-8-10-12-10-8------
    |-----------------------------------
    |-----------------------------------
    |-----------------------------------
    |-----------------------------------
    |-----------------------------------

    |-10-10-8-10-12-10-8------
    |----------------------------
    |-----------------------------
    |-----------------------------
    |-----------------------------
    |-----------------------------

    |-10-12-8-10-8--10-10-12-8-10-8
    |--------------------------------------
    |--------------------------------------
    |--------------------------------------
    |--------------------------------------
    |--------------------------------------
    (Iā€™m not too sure about the above three bars :p)

    Verse One
    |-----------------------------------------------------------------
    |--0-1-3---------------------------------------------------------
    |---------0-0h2p0--------0-------------------------------------
    |--------------------3-3-3---------------------------------------
    |-----------------------------------------------------------------
    |-----------------------------------------------------------------
    Chaahe Jo Tumhe Poore Dil Se

    |-----------------------------------------------------------------
    |--0-1-3---------------------------------------------------------
    |---------0-0h2p0--------2-------------------------------------
    |--------------------3-3-3---------------------------------------
    |-----------------------------------------------------------------
    |-----------------------------------------------------------------
    Milta Hai Woh Mushkil Se

    Rest will come later, please give me reps, and dont just view or at least give me a reply.

    Thanks guys, hope you enjoy it,
    Paras N.
     
    faiqrock likes this.
  2. faiqrock

    faiqrock XaiQ

    nice Tabs...
    Good Work...
    Reps!
     
  3. vini

    vini Repeat Offender

    nice vocal melody..good attempt..however i couldnt get the first 3 riffs of ur intro...maybe i need to listen to the song again..anyways good one
     
  4. pnainani03

    pnainani03 Request and I'll tab

    Wow, you guys are fast, thanks guys.
     
  5. faiqrock

    faiqrock XaiQ

    well when ever..where ever i find Good Work I reply Dude...:p:
    Tc
     
  6. pnainani03

    pnainani03 Request and I'll tab

    wow

    haha thanks its an honour!!!:p:p:p:)

    Paras N.
     
  7. electronic

    electronic New Member

    hey good job man especially the interlude is just perfect!!!!
     
  8. pnainani03

    pnainani03 Request and I'll tab

    ahaha thankss :) electronic

    Paras N.
     
  9. salman_farooq

    salman_farooq New Member

    hi yaar i m really very sorry yaar mainay tumhay jaldi reply nahi kiya sorry yaar tabs were well& good thnxxxx alot
    salman(famousguitarist)
     
  10. salman_farooq

    salman_farooq New Member

    hi yaar i m really very sorry that i did not reply early sorry yaar tabs were well& good thnxxxxxxxxx alot good job done aur mainay bhi tabs banai hai tujhay daikah toa ye jana sanam (dilwalay dulhania lay jayngay) song ki abhi post kernay laga hoon hope u enjoy
    salman(famousguitarist)
     
  11. salman_farooq

    salman_farooq New Member

    2-2-2-9-7-9-5-10-9-9-9-9-9

    daikha toa ye jana sanam
    2-2-2-9-7-9-5-4-4-4-4
    PYAR HOTA HAI DEEWANA SANAM
    2-4-0-2-4-0-2-5-2-2-2-2
    HUM YAHAN SAY WAHAN JAY HUMMMM
    2-4-0-2-4-0-5-2-2-2-2
    TERI BAHON MAIN BUS JAY HUM
     
  12. mukarram07

    mukarram07 New Member

    give me the chords please not the tabs
     
  13. pnainani03

    pnainani03 Request and I'll tab

    thanks

    thanks salman bhai, thanks everyone, im glad you liked it.
    but mukarram sorry i dont know how to do chords :(
     
  14. abhaynawathe

    abhaynawathe New Member

    wow

    good work but can u complete the tabs of this song
     
  15. pnainani03

    pnainani03 Request and I'll tab

    Sure. But please give me the lyrics of the parts you wan't tabbed. :)
     

Share This Page