Kailash Kher - Chaandan mein - Chords urgently reqd..

Discussion in 'Hindi Guitar Tabs - Submit or Request' started by swapnopia, Sep 29, 2010.

  1. swapnopia

    swapnopia New Member

    pls post complete chords of this song................key is perhaps E Major
     
  2. JUDAS_666

    JUDAS_666 New Member

    just gave a try, don't know how much accurate.....So I've posted till the first chorus only....will continue after feedbacks/ corrections/ suggestions

    (X4)
    E--12-12-

    (guitar2) (X4)
    E-------------------------------------------------------------
    B-------------------------------------------------------------
    G---1-1/2-1--1-1/2-4------------------------------------------
    D--2--------2-------------------------------------------------
    A-2--------2--------------------------------------------------
    E-------------------------------------------------------------

    E7(sitar) (at 0:11 and 0:19)

    E
    Raah Buharu, pag pakharu

    Tamme niharu jee

    E----------
    B-5-/-7--5-
    G-4-/-6--4-

    E7(sitar)

    E
    pran waru, baiya daru

    mein na haru jee

    E
    Ho aiji lagi........leego pehchan
    E
    Kahe...Bhar....

    E-0------0---------0------------
    B-0------0---------3------------
    G-2------2---------2------------
    D-4----------------4------------
    A-4-----------------------------
    mao-----jee-------jeeeee

    E--------------C#m
    Aaooo Ji......AAo ji


    E-0--0--0--0--
    B-0--2--0--2--
    G-1--1--1--2--
    D-2--2--2--2--
    A-2--2--2--0--
    E-0--0--0--0--

    AA..AA..O..Ji

    E----------------------------------
    B----------------------------------
    G-------------------7-7-6-6--------
    D-------------------7---7----------
    A-5/2-2-2-4-4/7-------------------
    E----------------------------------
     

Share This Page