kadhi tu-mumbai-pune-mumbai-chords

Discussion in 'Marathi Guitar Tabs - Submit or Request' started by saurabhguitar, Mar 5, 2011.

  1. saurabhguitar

    saurabhguitar New Member

    Movie:Mumbai-pune-mumbai
    Song:Kadhi tu
    Submitted By:Saurabh

    D.........A................Em......A......D.........
    kadhi tuuuuuuuuu,rimzim zarnari barsat
    D......Bm...A.....Em.......A..........D.........
    kadhi tuuuuuu,cham-cham karnari chandanyat
    Bm........A....D..........Bm......D.......F#m.....D.......
    kadhi tuuuuuuuuu,koslatya dhara thaiman vara
    D.................G...A...D...........Bm.....D.....
    bijlichi nakshi ambaratttttt,salsaltya lata
    F#m........D.....D....................G.....D..........Em.......
    bhijlelya vata,chimb pavsachi ooli raatttttttttttttt
    D......A..........Em......A......D.........
    kadhi tuuuuuu,rimzim zarnari barsat


    D.......G........A......G..........A.........G.......D........A.......D.......
    kadhi tuuuuu,ang-ang moharnari,aasmant darvalnari,raat-rani vedya jangalat
    Bm..........Em......A.................D........
    kadhi tuuuuuuuuu,hirvya chafyachya paklya
    D......A..........Em......A......D.........
    kadhi tuuuuuuu,rimzim zarnari barsat
     
  2. nik.pick28

    nik.pick28 New Member

    Thanx dude.....
     
  3. nik.pick28

    nik.pick28 New Member

    Kadhi Tu...Mumbai Pune Mumbai

    INTRO Tabs:

    E-------------------------------------------|
    B---5-3-2---2-3-5----5-3-2--------------------|
    G-2-------4-------2----------1-0-----------------|
    D---------------------------------4-3--------------|
    A-------------------------------------------|
    E-------------------------------------------|


    E-------------------------------------------|
    B---5-3-2--2-3-5---5-3-2-3\5----------------|
    G-2------4------2---------------------------|
    D-------------------------------------------|
    A-------------------------------------------|
    E-------------------------------------------|

    The flute part...
    also sounds cool on guitar....

    E------------------------2-----------------2-2\4-2--42----------------|
    B---5320-----------235---------------235----------------532-------------|
    G-2------2\4-2--4----------4\5-4--4---------------------------2\4-2--------|
    D-------------------------------------------------------------|
    A------------------------------------------------------------|
    E-------------------------------------------------------------|

    E------------------------2-----------------2-2\4-2--42------------A-A-A--|
    B---5320-----------235---------------235----------------532------2--2-2----|
    G-2------2\4-2--4----------4\5-4--4---------------------------2\4-2--2-2-----|
    D---------------------------------------------------------------------2--2-2-|
    A------------------------------------------------------------|
    E-------------------------------------------------------------|




    kadhi(D) tuuu(A)uuu,(Em)rimzim zar(A)nari barsaa(D)t

    kadhi(D) tuuu(A)uuu,(Em)cham-cham kar(A)nari chandanyaa(D)t

    kadhi(Bm)tu(A)uuuuu(D)uuu,

    (Bm)koslatya dha(D)ra (F#m)thaiman va(D)ra

    (D)bijlichi na(G)kshi (A)ambara(D)tttttt,(Bm)salsaltya la(D)ta

    (F#m)bhijlelya (D)vata,chimb(G)pavsachi(D)ooli (Em)raatttttttttttttt

    kadhi(D) tuuu(A)uuu,(Em)rimzim zar(A)nari barsaa(D)t

    Again der r these tabs:

    E-------------------------------------------|
    B---5-3-2---2-3-5----5-3-2--------------------|
    G-2-------4-------2----------1-0-----------------|
    D---------------------------------4-3--------------|
    A-------------------------------------------|
    E-------------------------------------------|




    kadhi(D) tuuuu(G)uuu,(A)ang-ang (G)moharnari,(A)aasmant (G)darvalnari,
    (D)raat-rani ve(A)dya jangalaa(D)t

    E--2\4-6-77-0-2\4-0--------------------------|
    B-0-------------------------------------------|


    kadhi(D) tuuuu(G)uuu,(A)ang-ang (G)moharnari,(A)aasmant (G)darvalnari,
    (D)raat-rani ve(A)dya jangalaa(D)t


    kadhi(Bm) tuuuuuu(Em)uuu,(A)hirvya chafya(D)chya paklyat

    kadhi(D) tuuuu(A)uuu,(Em)rimzim zar(A)nari barsaa(D)t

    rest u can figure out urself....:)

    If there is any mistake let me know...
    suggestions are welcome...!!
    :)
     
  4. D_Jai

    D_Jai New Member

    Thank You Bro-Ham!
    I'll Check them first and then, I'll reply corrections if required!
    Thank You very much!
    I know, you guys are always correct in Chords!
    :D
     
  5. D_Jai

    D_Jai New Member

    Please tell me the exact strumming pattern! I am not sure about My Strumming Pattern!!!!
     
  6. nik.pick28

    nik.pick28 New Member

    i m not sure about it but it might be...

    for 1st two lines strumming is soft...
    for each chord its - DUD 10 times with slow tempo...
    and then from 3rd line up to olii raat...
    D U D U DU....fast tempo...

    i hope u can understand what i hav 2 say...

    thankyou
    corrections and advices are welcome..:)
     
  7. D_Jai

    D_Jai New Member

    @nik.pick28,
    Hey bro, the fret numbers in which you are playing leads of Kadhi tu are among 2nd to 5th fret! Please try it in 7th to 11th fret! It sound better!
    And I will try this strumming pattern first! Then, I will reply you!
     
  8. sandip lagwanka

    sandip lagwanka New Member

    Hi... friends i am the new user for this site. i want piano notations of "Kadhi tu..." song from Mumbai Pune Mumbai... Pls reply if you people have it.




    Thanks & Regards
    Sandip Lagwankar
     
  9. sanjeev.torvi

    sanjeev.torvi New Member

    Tabs for Kadhi tu....

    Hey Guys,
    Can any one please post the tabs for kadhi tu (Mumbai pune mumbai)....
    I've just started to learn guitar, n it's a request from a very spcl person.... so counting on your support...

    regds,
    Sanjeev
     
  10. Moderator

    Moderator New Member

    मस्तच!!!!!!!!!!!!!!!!!!!!!
     

Share This Page