Kabhi Aisa Lagta Hai -lucky Ali (chords+tabs)

Discussion in 'Hindi Guitar Tabs - Submit or Request' started by guitarboy_anand, Jan 14, 2005.

  1. guitarboy_anand

    guitarboy_anand MAN WHO SOLD THE WORLD

    Intro – Finger picking :

    B F
    E---------------2--------------------------------2------------------------
    B--------------------4---2-------------------------2---2-----------------
    G-----------4---------4---------------------3-------3---------------------
    D--------4---------------------------------4----------------------------
    A -----2----------------------------------4-------------------------------
    E-------------------------------------------------------------------------

    Guitar solo----repeats thru’ intro
    E-----------------------------------------------------------
    B------------------------------------------------------------
    G------4-4h6--4-4--* 2-----------4--6h8--6-6-------------4 4h6-4-4-
    D---4-6-----------------------4--6------------------4-6-------
    A------------------------------------------------------------
    E------------------------------------------------------------



    B E B
    KABHI AISA LAGTA HAI KE DIL MEIN EK RAAZ HAI
    G#m E F#
    USE KEHNA CHAAHOO MEIN PAR KEH PAAON NA
    B E B
    AANKHON HI AANKON MEIN KEH JAATI HAIN JO YEH
    G#m E F#
    KHAMOSHIYOON KI YEH KAISI ZUBAAN
    B E B E
    MEINE SUNA JO NA USNE KAHA
    B E F#
    KYA AISA HI HOTA HAI PYAR
    B E B E
    MERE KHUDA MUJHE ITNA BATA
    B E F#
    KYA AISA HI HOTA HAI PYAR



    B E G#m---------------------------------REPEATEDLY
    NA NA NA NA NA NA NA NA NA NA NA







    B E B
    KABHI AISA LAGTA HAI ANJAANI PYAS HAI
    G#m E F#
    PAR SIMTI HONTHON MEIN WHO REH PAYEE NA
    B E B
    KISA EHSAAS HAI KOI YO PAAS HAI
    G#m E F#
    YEH DDORIYAAN HEIN PHIR KAISI YAHAAN
    B E B E
    MEHKI LAGE HAI SAARI FIZAYEEN
    B E F#
    KYA AISA HI HOTA HAI PYAAR
    B E B E
    MERE KHUDA MUJHE ITNA BATA
    B E F#
    KYA AISA HI HOTA HAI PYAR




    G#m E B F#
    YEH SACH CHAHAT PE KABHI KISI KA BHI ZOR NAHI
    G#m E B F#
    DILBAR KI YAADON KO BANDHE AISI KOI DOOR NAHI

    Rest is same

    I have my exams going on so I’ll send you the interludes later

    >>---------->

    GO GET IT
     
  2. DrSaurabh

    DrSaurabh Wh@+s Up D0C

    dint quiet get the rhythm :(
     
  3. KnightRider

    KnightRider New Member

    hey,
    there is already a thread in this forum with the chords of "Kabhi aisa lagta hai" by lucky ali....
    http://www.indianguitartabs.com/showthread.php?t=1508

    well the chords at this thread are completely different from yours... i tried playing those and it sounds pretty nice....
    i tried playing u'rs too but i m sorry to say... it doesnt really sound that good... may be its just me :eek:: ...


    anywayz, i think there could be some mistakes in the chords at the above thread...
    so this is how i play the song...
    well i would hope that some expert would look into this and decide which chords are correct....

    Here are the chords that i try to play...

    G
    kabhi aisa lagta hai
    C
    dil mein ek raaz hai
    G---------------------------C
    jise kehna chahoon par main keh paaoon naa


    G-------------------------C
    aankhon hee aankhon mein keh jaati hai jo
    G---------------------D
    khaamoshiyon kee yeh kaisi zubaan

    G--------------------C
    maine sunaaa jo naa usne kahaaa kya
    G----------------D
    aisa hee hota hai pyaar ....
    G------------------C
    mere KHUDA mujhe itna bataa kya
    G----------------D
    aisa hee hota hia pyaar ..

    Am
    Ek pal jo mil jaye dil ko
    D C -------D
    chala jaye duur kahin
    Am
    Duniya mein is Dil ke jaisa
    D C------D
    koi majboor nahin

    G--------------------C
    maine sunaaa jo naa usne kahaaa kya
    G----------------D
    aisa hee hota hai pyaar ....
    G------------------C
    mere KHUDA mujhe itna bataa kya
    G----------------D
    aisa hee hota hai pyaar .....

    is quite similar to the one posted by sumit in the above mentioned thread.... i just made a few corrections.... ppl pls respond.... asap... and let us know which is one is right
     

Share This Page