Junoon's Tu Hi Tu Reqd.

Discussion in 'Pakistani Guitar Tabs - Submit or Request' started by alirana, May 8, 2004.

  1. alirana

    alirana Old Time Guitarist

    Junoonis.. i want the tabs/chords for Tu hi Tu :p
     
  2. Quadrophenia

    Quadrophenia New Member

    Album: Azadi
    Song: Wahda Hoo La Shareek La Hoo

    Transcribed by:
    Chords - Hash Mushtaq
    Solo - Nirjhar Raina
    Compiled by: Shehzad Akbar

    Chords Played:

    || Am | G | F | E | Dm | C ||

    || ---0--- | ---3--- | ---1--- | ---0--- | ---1--- | ---0--- ||
    || ---1--- | ---3--- | ---1--- | ---0--- | ---3--- | ---1--- ||
    || ---2--- | ---0--- | ---2--- | ---1--- | ---2--- | ---0--- ||
    || ---2--- | ---0--- | ---3--- | ---2--- | ---0--- | ---2--- ||
    || ---0--- | ---2--- | ---3--- | ---2--- | ---0--- | ---3--- ||
    || ---0--- | ---3--- | ---1--- | ---0--- | ------- | ---0--- ||

    Here is some explantion of the notation.

    9h10 - The "h" indicates a hammeron to the indicated fret.
    8p7 - The "p" indicates a pulloff to the indicated fret.
    s17 - The "s" indicates a slide, to the next indicated fret.
    18b20 - The "b" indicates a bend to the indicated fret.
    22r20 - The "r" indicates when to release the bend.
    10^ - The "^" indicates which fret and when to do a vibrato.

    ** Tremolo Picking is just picking the same note over and over again really fast.

    After Intro:

    Am-G-F x 4


    Am G F
    Tu tu hi Tu,Tu hi Tu
    Am G F
    Tu tu hi Tu,Tu hi Tu
    Am G F E
    meri nas nas main Tu.meray har rang main Tu
    Am G F E
    meri nas nas main Tu.meray har rang main Tu
    Dm C E Am
    Wah da Hu,Wah da Hu la Shareeka Lahu
    Dm C E Am
    Wah da Hu,Wah da Hu la Shareeka Lahu


    Am G F
    Tu tu hi Tu,Tu hi Tu
    Am G F
    Tu tu hi Tu,Tu hi Tu
    Am G F E
    meri nas nas main Tu.meray har rang main Tu
    Am G F E
    meri nas nas main Tu.meray har rang main Tu
    Dm C E Am
    Wah da Hu,Wah da Hu la Shareeka Lahu
    Dm C E Am
    Wah da Hu,Wah da Hu la Shareeka Lahu

    Am-G-F x 2


    Am F G Am
    meri jaan hai Tu, eemaan hai Tu
    Am F E
    mera deen hai Tu,Kuraan

    Am-G-F x 2

    Am G F
    Tu tu hi Tu,Tu hi Tu
    Am G F
    Tu tu hi Tu,Tu hi Tu
    Am G F E
    meri nas nas main Tu.meray har rang main Tu
    Am G F E
    meri nas nas main Tu.meray har rang main Tu
    Dm C E Am
    Wah da Hu,Wah da Hu la Shareeka Lahu
    Dm C E Am
    Wah da Hu,Wah da Hu la Shareeka Lahu

    Solo (play once):

    e-------------------|-------------------------|---s17--s13--s12--10-8-7-5------
    G-9-9-10----5-5-6---|-------------------------|--------------------------------
    B-------------------|-7-7-9--5-5-7--4h5p4s2---|--------------------------------
    D-------------------|-------------------------|--------------------------------
    A-------------------|-------------------------|--------------------------------
    E-------------------|-------------------------|--------------------------------
    ( played with tremolo picking)**

    e-8p7---------7-8p7---------7-|--10---8---7-----------|------------------------
    G-----10-9h10-------10-9h10---|---------------10---9^^|------------------------
    B-----------------------------|-9---9---9---9----9----|------------------------
    D-----------------------------|-----------------------|------------------------
    A-----------------------------|-----------------------|------------------------
    E-----------------------------|-----------------------|------------------------


    e-8p7---------7-8p7---------7-|---12---10---8---7---------|--------------------
    G-----10-9h10-------10-9h10---|---------------------10^^^^|--------------------
    B-----------------------------|-9----9----9---9---9-------|--------------------
    D-----------------------------|---------------------------|--------------------
    A-----------------------------|---------------------------|--------------------
    E-----------------------------|---------------------------|--------------------


    e--------------------7---7---7-|---8---8---8----8---8---8---|------------------
    G---10---10---10---------------|----------------------------|------------------
    B-9----9----9------9---9---9---|-9---9---9----9---9---9-----|------------------
    D------------------------------|----------------------------|------------------
    A------------------------------|----------------------------|------------------
    E------------------------------|----------------------------|------------------


    e--------------------7---7---7-|---8---8---8----8---8---8---|------------------
    G---10---10---10---------------|----------------------------|------------------
    B-9----9----9------9---9---9---|-9---9---9----9---9---9-----|------------------
    D------------------------------|----------------------------|------------------
    A------------------------------|----------------------------|------------------
    E------------------------------|----------------------------|------------------


    e-------------------------------------------|----------------------------------
    G-18b20-18b20-18b20-18b20r18-17-15h17h18-17^|-15----15-18b20-18b20-18b20-------
    B-------------------------------------------|----17----------------------------
    D-------------------------------------------|----------------------------------
    A-------------------------------------------|----------------------------------
    E-------------------------------------------|----------------------------------


    e-17----------------------|----17----17----17-----19----19----19--|------------
    G----18-17-15h17h18-17^^--|-17----17----17-----17----17----17-----|------------
    B-------------------------|---------------------------------------|------------
    D-------------------------|---------------------------------------|------------
    A-------------------------|---------------------------------------|------------
    E-------------------------|---------------------------------------|------------


    e----20----20----20-----19----19----19-|----17----17----17-----19----19----19|-
    G-17----17----17-----17----17----17----|-17----17----17-----17----17----17---|-
    B--------------------------------------|-------------------------------------|-
    D--------------------------------------|-------------------------------------|-
    A--------------------------------------|-------------------------------------|-
    E--------------------------------------|-------------------------------------|-


    e----20----20----20-20b22-20b22r20p17-22b24^^^^^^------------------------------
    G-17----17----17---------------------------------------------------------------
    B------------------------------------------------------------------------------
    D------------------------------------------------------------------------------
    A------------------------------------------------------------------------------
    E------------------------------------------------------------------------------


    Am F G Am
    Aghaaz bhi Tu,Aakhir bhi Tu
    Am F E
    Ghair bhi Tu,Zahir bhi Tu
    Am F G Am
    meri jaan hai Tu, eemaan hai Tu
    Am F E
    mera deen hai Tu,Kuraan


    Am G F
    Tu tu hi Tu,Tu hi Tu
    Am G F
    Tu tu hi Tu,Tu hi Tu
    Am G F E
    meri nas nas main Tu.meray har rang main Tu
    Am G F E
    meri nas nas main Tu.meray har rang main Tu
    Dm C E Am
    Wah da Hu,Wah da Hu la Shareeka Lahu
    Dm C E Am
    Wah da Hu,Wah da Hu la Shareeka Lahu
    Dm C E Am
    Wah da Hu,Wah da Hu, Wah Da Hu

    la Shareeka Lahu x 12
     

Share This Page