Junoon Sayonee Solo

Discussion in 'Pakistani Guitar Tabs - Submit or Request' started by Orange Guitar, Aug 3, 2005.

  1. Orange Guitar

    Orange Guitar IGT's ALLROUNDER

    I copy pasted the solo becoz lots of ppl were requesting for this solo....ok...here it is!!!


    --------------------------------------11------------------------------
    ------10^11-11v10p8-11-10~~---8-10-11----11-11-10~~-------------------
    ----------------------------------------------------------------------
    ----------------------------------------------------------------------
    ----------------------------------------------------------------------
    ----------------------------------------------------------------------

    -----12^13--12-10-----------------------------------------------------
    ------------------13^15~~-13-11-10------------------------------------
    -----------------------------------12-10~~--10-9----------------------
    -------------------------------------------------12~~-----------------
    ----------------------------------------------------------------------
    ----------------------------------------------------------------------

    --17^18-18v17p15-18^20-18~~--20-18----18-17----17-15----15-13----12-10
    -----------------------------------18-------17-------15-------13------
    ----------------------------------------------------------------------
    ----------------------------------------------------------------------
    ----------------------------------------------------------------------
    ----------------------------------------------------------------------

    ---------------------------------5-----------5----------5-------------
    -10---8^10~~~8^10v8p6--8^10~~------8^10v8p6---8^10v8p6---8^10v8p6-----
    ----------------------------------------------------------------------
    ----------------------------------------------------------------------
    ----------------------------------------------------------------------
    ----------------------------------------------------------------------

    ----------------------------------------------------------------------
    -15----------------13-------------------------------------------------
    -14-14^15v14p12----12-------------------------------------------------
    ----------------14--------3-0--5-3-0-3-0-5-3-0-3-0-0------------------
    ----------------------------------------------------------------------
    ----------------------------------------------------------------------

    -----------------------------------------15-17^19v17-17--17^19--------
    -15^17~~-17v15p12-17^19~~~--17----15-17----------------15-----15-15-15
    -------------------------------14-------------------------------------
    ----------------------------------------------------------------------
    ----------------------------------------------------------------------
    ----------------------------------------------------------------------


    -8-x-10-10-10-10-10--8-x-7-7-7-7-7------------------------------------
    -6-x-8--8--8--8--8---6-x-5-5-5-5-5------------------------------------
    ----------------------------------------------------------------------
    ----------------------------------------------------------------------
    ----------------------------------------------------------------------
    ----------------------------------------------------------------------

    -8-x-10-10-10-10-10-10/12-12-12-12-12-12-12---------------------------
    -6-x-8--8--8--8--8---8/10-10-10-10-10-10-10---------------------------
    ----------------------------------------------------------------------
    ----------------------------------------------------------------------
    ----------------------------------------------------------------------
    ----------------------------------------------------------------------

    -8-x-10-10-10-10-10--8-x-7-7-7-7-7----8-x-10-10-10-10-10--7\----------
    -6-x-8--8--8--8--8---6-x-5-5-5-5-5----6-x-8--8--8--8--8---5\----------
    ----------------------------------------------------------------------
    ----------------------------------------------------------------------
    ----------------------------------------------------------------------
    ----------------------------------------------------------------------
     
  2. Quadrophenia

    Quadrophenia New Member

    dont ''over do'' the credits to the actual tabber..orange..
     
  3. nadish

    nadish Active Member

    Oh My!!!! is it just Solo of that songs???
     
  4. Lahori_rocker

    Lahori_rocker Guitar God left IGT

    very good work orange keep on rocking....
     
  5. Orange Guitar

    Orange Guitar IGT's ALLROUNDER

    @quad: whats the matter with u man...i have written that i copy pasted it :mad:

    @lahori: thnx!

    @nadish: yeah...it is just the solo!!!!!!!!!! :shock:
     
  6. Quadrophenia

    Quadrophenia New Member

    @ orange..we know u've copy pasted..but whats the point of copy pasting when u're not gonna mention the poor guy(the name) whose spent hours tabbing the solo?
    btw its banoopee the guy who did that..i suggest to slip that in the tab.

    appreciate ppl who work hard.
     
  7. JAZZ

    JAZZ New Member

    ^^^ wuts wrong qudro !!!!!.
    ...we need tabs.... n who cares for the Tabber....we r not gonna give him Medal of Honor..?????
     
  8. Quadrophenia

    Quadrophenia New Member

    whats rong with me? ...jazz u tryign to say that credit shudnt be given to the tabber? so u support copy pasting then ..i guess..
     
  9. Quadrophenia

    Quadrophenia New Member

    sorry if i sound like an A*S :p just abit edgy..about stuff like this..been noticing it and turning a blind eye to it..
     
  10. nadish

    nadish Active Member

    Just stop this silly fight buddies!!!!!!
     
  11. Orange Guitar

    Orange Guitar IGT's ALLROUNDER

    @quad: i think that u r a bit jealous from me...ok no matter...thnx to guyz that appreciate the tabs!!!
     
  12. Quadrophenia

    Quadrophenia New Member

    hahaha..jealous..rite..yes..not abit i'm VERY jealous of you.. LOL.
     
  13. Orange Guitar

    Orange Guitar IGT's ALLROUNDER

    ok man....i dont care! carry on!!!!
     

Share This Page