Junoon - Khawab - Solo

Discussion in 'Pakistani Guitar Tabs - Submit or Request' started by Quadrophenia, Apr 20, 2009.

  1. Quadrophenia

    Quadrophenia New Member

    Hey everyone,
    started becoming more active on this forum after a long time. And here is my version of khawab's Solo by Junoon


    e-------------------------------------------------------------|
    B-------------------------------------------------------------|
    G-------------------------------------------------------------|
    D-------------------------9---12b14--12--11---9-11----------|
    A----9---11-----11---12--------------------------------------|
    E-------------------------------------------------------------|


    e-------------------------------------------------------------|
    B------------------------12b14---12---10---------------------|
    G---11b13~---11---9---------------------------13~----------.|
    D-------------------------------------------------------------|
    A-------------------------------------------------------------|
    E-------------------------------------------------------------|

    Okay the next bit i'm not too sure of, coz i'm not good with scale runs

    I think Salmans playing either a dorian or a mixolydian scale not sure.It doesnt really matter as your passing through the notes quite quickly and so as long as the first note and the ending note correspond, it shouldnt really make any difference.



    e----------------------------------12h14h15----15b17---15--14--15-|
    B------------------------12h14h15----------------------------------|
    G-------------11h12h14---------------------------------------------|
    D---11h12h14-------------------------------------------------------|
    A-------------------------------------------------------------------|
    E-------------------------------------------------------------------|


    e---17b19----17---15--14---------15--14---------------------|
    B----------------------------17------------17--15--17~------|


    B--17--15-14-------15--14------------------------------------|
    G--------------16-----------16--14---16~---------------------|
    D-----------------------------------------------14/12/14------|


    As always suggestions and corrections are always welcome!
    Please do give feedback! many thanks!
     

Share This Page