Junoon - Allah Hu

Discussion in 'Pakistani Guitar Tabs - Submit or Request' started by Redalert, Feb 24, 2004.

  1. Redalert

    Redalert New Member

    Junoon - Allah Hu


    SYMBOLS:-
    b-bend
    p-pull
    (v)-vibrato

    CHORDS BY: Hash Mushtaq

    G Cadd9 Bb6/add9
    320033 032033 033033

    Intro: G,Cadd9,Bb6/add9
    G,F,C (During the Raag)
    G F C
    Yeh zameen kuch nahin, aasmaan jab na thaa
    G
    Yeh zameen kuch nahin, aasmaan jab na thaa
    G
    CHand sooraj na thay,yeh jahan jub na thaa
    F C
    Raz-e-Haq bhi kisi par ayaan jab na thaa
    F C
    Raz-e-Haq bhi kisi par ayaan jab na thaa
    G G
    Jab na tha kuch yahan , Jab na tha kuch yahan
    F C
    Tha magar Tu hi Tu
    G F C G
    Allah Hu,Alla Hu Alla Hu, Tu hi Tu Tu hi Tu Tu hi Tu

    (Repeat with new verse).

    SOLO!!!by imran
    e|-------------------------------------------------------------------------|
    B|-------------------------------------------------------------------------|
    G|--------------------------------------------------------4-4--5(v)--------|
    D|------4-4--4s5(V)s4(v)--4h5p4--4s2(v)---2s4--5---------------------------|
    A|-------------------------------------------------------------------------|
    E|-------------------------------------------------------------------------|


    []
    e|-------------------------------------------------------------------------|
    B|-------------------------------------------------------------------------|
    G|----5b-5b-5b-5b-5b-5b-5b-5b--5s7--7(v)--5--4(v)--------------------------|
    D|-------------------------------------------------------------------------|
    A|-------------------------------------------------------------------------|
    E|-------------------------------------------------------------------------|


    []
    e|-------------------------------------------------------------------------|
    B|----------5-6-7-8-8(v)--8b-8b-8b-8bp7--8--7--5--7---5(v)-----------------|
    G|----4s7------------------------------------------------------------------|
    D|-------------------------------------------------------------------------|
    A|-------------------------------------------------------------------------|
    E|-------------------------------------------------------------------------|


    []
    e|-------------------------------------------------------------------------|
    B|-------------------------------------------------------------------------|
    G|--5--7--5--7--5--4--5-7--5--7-4-5--7-5--7-4--5--7------------------------|
    D|---------------------------------------------------------5--7---5--4-----|
    A|-------------------------------------------------------------------------|
    E|-------------------------------------------------------------------------|


    []
    e|-------------------------------------------------------------------------|
    B|-------------------------------------------7-9-7-9-7-6-7-9-7-9-7--9s10---|
    G|--5-7-5-7-5-4-5-7-5-7-5--7s8(v)s7(v)-------------------------------------|
    D|-------------------------------------------------------------------------|
    A|-------------------------------------------------------------------------|
    E|-------------------------------------------------------------------------|


    []
    e|---10p9p8p7--------------------------------------------------------------|
    B|---------------10p9p8p7---9--7(v)--5(v)--3---3(v)------------------------|
    G|-------------------------------------------------------------------------|
    D|-------------------------------------------------------------------------|
    A|-------------------------------------------------------------------------|
    E|-------------------------------------------------------------------------|


    []
    e|-------------------------------------------------------------------------|
    B|-----------15---17---18b-18b-18b-18b-18b-18b-18b-------------------------|
    G|---13s16-----------------------------------------------------------------|
    D|-------------------------------------------------------------------------|
    A|-------------------------------------------------------------------------|
    E|-------------------------------------------------------------------------|


    []
    e|-------------------------------------------------------------------------|
    B|--18--17--15---18--17--15-15(v)------18-17--15--18--17--15-15(v)---------|
    G|-------------------------------------------------------------------------|
    D|-------------------------------------------------------------------------|
    A|-------------------------------------------------------------------------|
    E|-------------------------------------------------------------------------|


    []
    e|-------------------------------------------------------------------------|
    B|------------15--17--18--18b--18b--18b--19b---21b--19--18--17---15--------|
    G|--13s16------------------------------------------------------------------|
    D|-------------------------------------------------------------------------|
    A|-------------------------------------------------------------------------|
    E|-------------------------------------------------------------------------|


    []
    e|-------------------------------------------------------------------------|
    B|--17--15--15(v)--18--17--15--18--17--15--18--17--15--18--17--15----------|
    G|-------------------------------------------------------------------------|
    D|-------------------------------------------------------------------------|
    A|-------------------------------------------------------------------------|
    E|-------------------------------------------------------------------------|


    []
    e|-------------------------------------------------------------------------|
    B|--18---17--15---17-------15--17---18--17--15------15--17--18--17--15-----|
    G|-----------------------16---------------------------16-------------------|
    D|-------------------------------------------------------------------------|
    A|-------------------------------------------------------------------------|
    E|-------------------------------------------------------------------------|


    []
    e|-------------------------------------------------------------------------|
    B|------15---17(v)------15--17---18--17--15--------15--17--15--------------|
    G|--16--------------16----------------------------16-----------------------|
    D|-------------------------------------------------------------------------|
    A|-------------------------------------------------------------------------|
    E|-------------------------------------------------------------------------|


    []
    e|-------------------------------------------------------------------------|
    B|------------------------15--17--18--17--15-------15--17--18--17--15------|
    G|--16s14s12(v)----16--------------------------16--------------------------|
    D|-------------------------------------------------------------------------|
    A|-------------------------------------------------------------------------|
    E|-------------------------------------------------------------------------|


    []
    e|-------------------------------------------------------------------------|
    B|------15--17(v)---15-15--18--15--15--17(v)----15p14-14h15--15(v)---------|
    G|--16---------------------------------------------------------------------|
    D|-------------------------------------------------------------------------|
    A|-------------------------------------------------------------------------|
    E|-------------------------------------------------------------------------|


    []
    e|-------------------------------------------------------------------------|
    B|--14(v)---14b--14b--14b(v)--12--12--14-14-14-14(v)-----------------------|
    G|--------------------------------------------------------------14s12s14(v)|
    D|-------------------------------------------------------------------------|
    A|-------------------------------------------------------------------------|
    E|-------------------------------------------------------------------------|


    []
    e|-------------------------------------------------------------------------|
    B|-------------------------------------------------------------------------|
    G|--12-12--14(v)--12--12--14--12s14--12s10--10-10-12--10s12--10s9----------|
    D|-------------------------------------------------------------------------|
    A|-------------------------------------------------------------------------|
    E|-------------------------------------------------------------------------|


    []
    e|-------------------------------------------------------------------------|
    B|-------------------------------------------------------------------------|
    G|--9-9-10-9s10--9s7--7--7-9-7s9--7s5--5-5-7-5s7--5s4--4-4--5-4s5--4s2-----|
    D|-------------------------------------------------------------------------|
    A|-------------------------------------------------------------------------|
    E|-------------------------------------------------------------------------|
     
  2. Redalert

    Redalert New Member

    ok the number in the (brackets) is how many times u got to
    strump the fret example:-2(14) play the 2nd fret G string 14 times
    like a tremolo!!:) and so on

    E|-------------------------------------------------------------------------|
    B|-------------------------------------------------------------------------|
    G|--2-2-4-2s4-2s1--1-1-1--2(14)---4(14)--5(14)-7(14)--9(14)--10(14)-12(14)-|
    D|-------------------------------------------------------------------------|
    A|-------------------------------------------------------------------------|
    E|-------------------------------------------------------------------------|


    []
    e|-------------------------------------------------------------------------|
    B|-------------------------------------------------------------------------|
    G|--10(8)-9(8)--7(8)--5(8)--4(8)--2(8)-0(3)--------------------------------|
    D|-------------------------------------------------------------------------|
    A|-------------------------------------------------------------------------|
    E|-------------------------------------------------------------------------|


    []
    e|-------------------------------------------------------------------------|
    B|-------------------------------------------------------------------------|
    G|---2-2--4--4s6--4s2h4p--2-2-4--4s6-4s2h4p2---2-2--4--4s6-4s2h4-----------|
    D|-------------------------------------------------------------------------|
    A|-------------------------------------------------------------------------|
    E|-------------------------------------------------------------------------|


    []
    e|-------------------------------------------------------------------------|
    B|-------------------------------------------------------------------------|
    G|--4s6-4s2hp-4s6-4s2--4--2------------------------------------------------|
    D|-------------------------------------------------------------------------|
    A|-------------------------------------------------------------------------|
    E|-------------------------------------------------------------------------|

    ok during this ALLAH HU!!..i think so salman must be playing something..just to noisy i couldn`t
    understand it...well that iz if he`s playin something..:)

    Allah Hu,Alla Hu Alla Hu, Tu hi Tu Tu hi Tu Tu hi Tu

    G F C
    Yeh zameen kuch nahin, aasmaan jab na thaa
    G
    Yeh zameen kuch nahin, aasmaan jab na thaa
    G
    CHand sooraj na thay,yeh jahan jub na thaa
    F C
    Raz-e-Haq bhi kisi par ayaan jab na thaa
    F C
    Raz-e-Haq bhi kisi par ayaan jab na thaa
    G G
    Jab na tha kuch yahan , Jab na tha kuch yahan
    F C
    Tha magar Tu hi Tu
    G F C G
    Allah Hu,Alla Hu Alla Hu, Tu hi Tu Tu hi Tu Tu hi Tu
     
  3. alirana

    alirana Old Time Guitarist

    you rock dude :) :beer:

    n hey help me finding chords for papu yaar .. i got the main riff


    B-----------------------------------------6------------------
    G---5-5--3--5--3-----3--5---5-3--5-------------------
    D-------------------5------------------------------------

    n now if u keep this riff in mind and strum F# u can get the riff's music on it ... like holding n leaving the last two strings ( e B) or in other words holding n letting go the bar of F# while u strum...

    so am just now short of the chords for the rest of the song... pleaaaaaaase find em dude... by the way i got this F# strumming idea when Ali Azmat was playing papu yaar in a concert here ;)
     
  4. Redalert

    Redalert New Member

    try this

    http://www.indianguitartabs.com/showthread.php?s=&threadid=958
     

Share This Page