Jungle hai aadhi raat hai : Biwi No. 1

Discussion in 'Hindi Guitar Tabs - Submit or Request' started by VisOrchestraGrp, Mar 31, 2008.

  1. VisOrchestraGrp

    VisOrchestraGrp New Member

    Req. By - Ernav

    Movie - Biwi No. 1
    ** Lyrics Provided by - Ernav

    Note - s shows slide .


    HUMMING -

    B |--6-6-6-8--6-6-6------6-6-6-8--8-8--6-6-6-----------------------
    G |---------------------5---------------------------5--5-------3-------
    D |---------------------------------------------------------6-----------


    B |--4-4-4-6--4-4-4------4-4-4-6--6-6--4-4-4-------4--------------
    G |---------------------3---------------------------3-------3-5-------


    B |--6-6-6-8--6-6-6------6-6-6-8--8-8--6-6-6-----------------------
    G |---------------------5---------------------------5--5-------3-------
    D |---------------------------------------------------------6-----------


    B |--4-4-4-6--4-4-4------4-4-4-6--6-6--4-4-4-------4--------------
    G |---------------------3---------------------------3-------3-5-------


    ......Jungle....hai....aadhi....raat....hai
    E |------4-----------3------------------------------------------------
    B |------------6---------4----6-6----6-------------------------------
    G |--5----------------------------------------------------------------


    ......Lagne....laga......hai....darr
    B |------6--------6---------------------------------------------------
    G |--5--------5--------5-----3---------------------------------------


    ......Duniya....ko.....bhool.....jaaon
    E |----------------------4------3-3-----------------------------------
    B |-------------------6------------------------------------------------
    G |--3-3-------6------------------------------------------------------


    ......Kuch....aisi.....baat...kar
    E |--3-------3-4----6-3----4-----------------------------------------


    FILLER :-

    B |------4-6-------4-6-------4-6-------4-6--------------------------
    G |--5---------5---------5---------5---------------------------------


    ......Darne.....waali....kya....baat....hai
    E |------4--------3---------------------------------------------------
    B |------------6--------4------6-6----6------------------------------
    G |--5----------------------------------------------------------------


    ......Jab.....saath....mein....hai....dilbar
    B |---------6-----------------6--------------------------------------
    G |--5---------------5--------------5-3-----------------------------


    ......Aaja....meri....baahon....mein
    E |-------------4----3-3--------3-----------------------------------
    B |----------6-------------------------------------------------------
    G |--3-6------------------------------------------------------------


    ......Soja....rakh....ke......sar
    E |--3-------3-4----6-3----4-----------------------------------------


    MUSIC :-
    E |-------4--------3-------------------------------------------------
    B |------------6--------4-6-6--------6-------6----------------------
    G |--5---------------------------5-------5--------6-5-3-3-----------


    B |-----------6-9-8-8----8-6-8----8-9-11----9-8-9------------------
    G |--6-3-6----------------------------------------------------------


    STANZA :-

    ......Dil...mein....kya....hoti....hai....hulchul
    E |--8----7-------8------9-7----8-----9-8----------------------------


    ......Betaabi........chaayi....hai.....har pal
    E |-----------------8--------------------------------------------------
    B |--11-10-11--------10----11---------------------------------------
    G |----------------------------------13-12----------------------------


    ......Gaalon....ki.......rangat.....loon....ley le
    B |--------------------11-----------------11-9-----------------------
    G |--13-12----13---------12----13----------------------------------


    ......Ho.........main....to......yahi.............chaahati....hoon
    E |-----11----11----------------------------------------------------
    B |--9-----------------13-------------------------------------------
    G |---------------------------13-12---------12-10-8----10----------


    ......Tanhaayi........ka.....aalam
    E |-------13-13-----------------------------------------------------
    B |--13-------------13----11-13-------------------------------------


    ......Taare.......bhi.....soye......hain
    E |-------13----13---------------9----------------------------------
    B |--13----------------13-11----------------------------------------


    ......Hum....bhi....ek.....dooje......ki
    E |--11-----11----11----11-10----11--------------------------------


    ......Chaahat......mein....khoye...........hain
    E |--11-11s13-----------------11------------------------------------
    B |----------------14------14------13----13-------------------------


    ......Tanhaayi........ka.....aalam
    E |-------13-13-----------------------------------------------------
    B |--13-------------13----11-13-------------------------------------


    ......Taare.......bhi.....soye......hain
    E |-------13----13---------------9----------------------------------
    B |--13----------------13-11----------------------------------------


    ......Hum....bhi....ek.....dooje......ki
    E |--11-----11----11----11-10----11--------------------------------


    ......Chaahat......mein....khoye...........hain
    E |--11-11s13-----------------11------------------------------------
    B |----------------14------14------13----13-------------------------


    ......Bahar.....mausam.....sardi......ka
    B |--12-13----14-13-------12-13----13--------------------------------


    ......Kyun....garmi.....hai....andar......Haaye
    B |--13------13-11----9-----8-6-8-----------------------------------
    G |---------------------------------------5-----------------------------


    STANZA 2-

    ......Tujhe....pagal....main....kar....doon....kar de
    E |--8-8------7-8-----9-------7------8--------9-8-----------------------


    ......Aagosh.........mein....bhar....loon....bhar le
    E |-----------------8------------------------------------------------------
    B |--11-10-11-------------10------11-------------------------------------
    G |------------------------------------------13-12------------------------


    ......Seeney....se....lag......jaaon....lag ja
    B |-------------------11---------------11-9------------------------------
    G |--13-12----13------------12-13---------------------------------------


    ......Ho.........ye....lo......sanam....aa....gayi
    E |-----11----11---------------------------------------------------------
    B |--9--------------13---------------------------------------------------
    G |------------------------13-12----12----10-8-10-----------------------


    ......Ho......aankh......to.....khuli.......hai
    E |---------13----------------------------------------------------------
    B |--13---------13----13----11-11----13--------------------------------


    ......Lekin.........tum.....so....gayi......ho
    E |------13------------------------------9-----------------------------
    B |--13----------13-----13----11-11-----------------------------------


    ......Jaanta.........hoon.....main
    E |--11-11-11----10------11------------------------------------------


    ......Deewani...........ho..........gayi.......ho
    E |--11-11-13------------11------------------------------------------
    B |-------------14----14--------14-13----13--------------------------


    ......Hum....dono......aaj....akele
    B |--13-----12-13----14----13-12-13---------------------------


    ......Koi.........bhi....na....ghar....par
    B |--13-13----11----9----8-6----8----------------------------
    G |------------------------------------5-----------------------
     
  2. ernav

    ernav Member

    thankyou so much visorchestragrp...thankyou
     
  3. Swami

    Swami New Member

    Hello visorchestragrp ,
    Well sir I request some songs many days ago but don't get it .
    Please post it , along with the song Pehhli nazur meiun from the movie RACE
    sung magnificently by Atif aslam .
     
  4. ernav

    ernav Member

    hello visorchestrgrp, please tell me is this image is right or wrong,
    i dont know surely western format on keyboard......

    http://lh6.google.com/talk2a/R_Gr6wWFQ3I/AAAAAAAAAI8/tHVi8sevNkE/s400/PianoLayoutImagePNG.png


    and if this image is right.......i have make tune myself....

    movie ---goal........song ishq ka kalma

    part of stanza...


    MAJNU------AUR---RANJHE----SI----
    -g--c--------a#----g--c------a#-----

    MOHABBAT-----MAINE-----KII----HAI----
    -g----c---------a#-g------f------f-------

    -DIL----MERA----HAI-----DEEWANA----
    -c-------c-a#-----c-------d#-d#-c----


    please tell me is this right??as soon as possible......

    if wrong confirm me right one...byee....n thanks in advance..
     
  5. ernav

    ernav Member

    hello visorchestragrp....i also want these songs

    ek uncha lamba kad from welcome
    dupatta tera from partner
    bas deewangi from om shanti om
     
  6. VisOrchestraGrp

    VisOrchestraGrp New Member

    Ok Swami and Ernav I will try to post these songs soon .
     
  7. bhootmahal

    bhootmahal New Member

    Hello visorchestragrp....i wud like to request d song dum maaro dum from hare rasm hare krishna plzzzz............

    Thanks!!! :)
     
  8. bhootmahal

    bhootmahal New Member

    Visorchestragrp....I wud like to request another song too........chura liya hai tumne jo dil ko (old one) from movie yaadon ki baraat

    Thanks!!
     
  9. VisOrchestraGrp

    VisOrchestraGrp New Member

    ERNAV check it

    Movie - Goal ........ Song - Ishq ka kalma

    Ernav the lines posted by you is -

    MAJNU------AUR---RANJHE----SI-----
    -g--c--------a#----g--c------a#-----


    MOHABBAT-----MAINE-----KI----HAI-----
    -g----c---------a#-g------f------f-------


    -DIL----MERA----HAI-----DEEWANA-----
    -c-------c-a#-----c-------d#-d#-c----


    While the correct lines are - ( All notes in capital are added by me ) -


    MAJNU------AUR---RANJHE----SI-----
    -g--c-------a# G#----g--c------a#-----


    MOHABBAT-----MAINE-------KI----HAI-----
    -G# g----c---------a# G#----G------f-------


    -DIL----MERA----HAI-----DEEWANA-----
    -c-------c-a#-----c-------d# D -c----


    As you dont know western format on keyboard so here is guitar
    verson for you .

    THE CORRECT VERSON .

    ......Majnu....aur.....ranjhe....si......mohabbat...maine....ki....hai
    G |------5----3----------5------3----------5--------3---------------------
    D |--5-----------6----5---------------6-5--------------6------5----3------
    ** All the lines of stanza upto this line of stanza is same **


    ......Dil....mera....hai....deewana
    B |-----------------------4-3----------------------------------------------
    G |--5----5-3----5-------------5-------------------------------------------

    ** Repeat this line twice - thrice **


    ----------------------
    B |--6-4-3-3-4-------------------------------------------------------------

    This is complete stanza .


    WHILE THE GUITAR VERSON OF TABS POSTED BY YOU IS -

    ......Majnu....aur.....ranjhe....si......mohabbat...maine....ki....hai
    G |------5----3----------5------3----------5--------3---------------------
    D |--5----------------5-----------------5--------------5------3----3------


    ......Dil....mera....hai....deewana
    B |-----------------------4-4----------------------------------------------
    G |--5----5-3----5-------------5-------------------------------------------
     

Share This Page