Josh - Kabhie tabs

Discussion in 'Pakistani Guitar Tabs - Submit or Request' started by Quadrophenia, Jul 12, 2004.

  1. Quadrophenia

    Quadrophenia New Member

    Song name:-kabhe.
    Band name:-Josh.
    Chords & lyrics
    written by:snushah@hotmail.com/yahoo.com


    e------------------------------7--------------------------------
    B-----------10--10-10-----8-------------------------------------
    G---------9----9--9------7---7----------------------------------
    D-------7-----7--------5----5-----------------------------------
    A--------------------------------------------------------------
    E--------------------------------------------------------------


    __Part1______ ___part2__
    e------------------------------7--------------------------------
    B-----------10--10-10-----8-------------------------------------
    G---------9----9--9------7---7----------------------------------
    D-------7-----7--------5----5-----------------------------------
    A--------------------------------------------------------------
    E--------------------------------------------------------------

    you can play , the given riff.. with the lyrics

    or play chords..


    A G A
    Kabhi maina chaho koi khoshi
    G A
    Na mai chahoo yeah zindagi

    G
    mere dil mai teri kami


    Har sanam har pal hai koi kadam
    Har dil ki chahat magan
    Dhal dhal k guzrey janam

    F G A
    Jangalo AUR Samandaro mai samey

    F G A
    Hai rahatey jo milay na kabhi



    A G D A
    Is hasi samey ki yeah rahat samajhney aaney lagi
    A G D A and so on..........
    ban jaye gi yeah khooshi mil jaye gi yeah khooshi

    kitney samey guzar gaye
    Bichar gaye yeah samey
    Ban jayegi yeah zameen



    kabhi mai chaho sab k liye
    khul jaye dil mai chupey
    chootey chotey gham k giley

    ooh kabhi mai chaho tere liye
    Main tere chahoo mere liye ..
    Jo gaoo saab k liye

    jangalo or samandaro mai samey...........
    hai rahatey jo milay na kabhi


    Is hasi samey ki yeah rahat samajhney aaney lagi
    ban jaye gi yeah khooshi mil jaye gi yeah khooshi
    kitney samey guzar gaye
    Bichar gaye yeah samey
    Ban jayegi yeah zameen



    Iss Zamee ke Aleeshan
    Ochaoo ke tara
    Gao main abhe yahe yahe yahe yahe


    Raho khushboo meray ghulam
    Hamesha raho shan
    Gao zara yehe yehe yehe yehe....

    Hoo diwano Main ho tera
    Main diwano ho tera
    khamoshe hain yahaa...

    Is hasee samey ki yeah Rahat Samajhmey aaney lagi
    Ban jaye gi yeah khooshi Mil jaye gi yeah khooshi
    kitney samey guzar gaye
    Bichar gaye yeah samey
    Ban jayegi yeah zameen


    REPEAT last para.



    kabhe kabhe..
    :rockon:
     
  2. avinkamath

    avinkamath New Member

    check out the same at main category>hindi tabs>kabhi from josh
     
  3. Taj

    Taj New Member

    luv the song :)
     

Share This Page