jnoy tujhe dekha toh yeha jaana sanam

Discussion in 'Hindi Guitar Tabs - Submit or Request' started by sumit, Jun 23, 2004.

  1. sumit

    sumit HaNdS uPPP!!

    :rockon: :rock: E-------7-5-7-3-5-8-7-7-7-7
    G-5-5-5-------------------
    tujhe dekha toh yeh jaana sanam

    E-----7-5-7-3-5-3-2-2-2-2
    G--5-5
    pyar hota hai deewana sanam

    E----------------
    G-5-7-3-5-7-3-5-8-7-7-7-7--
    ab yaha se kahan jaye hum

    E-------------------
    G-5-7-3-5-7-3-8-7-5-5-5-5
    teri bahon main marjaye hum

    comment how it sounds and improve it if u cn
     
  2. sumit

    sumit HaNdS uPPP!!

    E-------7-5-7-3-5-8-7-7-7-7
    G-5-5-5-------------------
    tujhe dekha toh yeh jaana sanam

    E-----7-5-7-3-5-3-2-2-2-2
    G--5-5
    pyar hota hai deewana sanam

    E----------------
    G-5-7-3-5-7-3-5-8-7-7-7-7--
    ab yaha se kahan jaye hum

    E-------------------
    G-5-7-3-5-7-3-8-7-5-5-5-5
    teri bahon main marjaye hum

    comment how it sounds and improve it if u cn
    __________________
     
  3. ats

    ats Oldie

    i have another version of this

    1st line
    E -0-0-0-7-5-7--3--5--8-7

    2nd line
    E -0-0-0-7-5-7--3--5--3-2

    3rd line
    E -0-2----0--2----0--3-2
    B ------3--------3

    4th line
    E -0-2----0--2----3--2-0
    B ------3--------3

    or

    4th line
    E --2--3--5--10--8--7--3--5--7--5--3--2--0
     

Share This Page