Jism - Awaarapan Bajaarapan

Discussion in 'Hindi Guitar Tabs - Submit or Request' started by FinalPhase, Nov 11, 2003.

  1. FinalPhase

    FinalPhase New Member

    E|-----------------------------------------------------------
    B|-----------------1--3--------------------------------------
    G|--------3-----3--------2-----------------------------------
    D|--3-2-0--------------------3-3--3-3--0------2-2------------
    A|---------------------------------------3-3-----------------
    f e d a# a# c d a f f f f d c c e e
    Aawaarapan, banjaarapan, ek khala hai seene mein
    Har dam har pal bechaini hai, kaun bala hai seene mein


    E|-----------------------------------------------------------
    B|---------1-1-------------1-1-----------------3-1-----------
    G|-2--3--2--------2---3--2---------0-2-0-3--3------2--2------
    D|-----------------------------------------------------------
    a a# a c c, a a# a c c, g a g a# a# d c a a
    Is dharti par, jis pal sooraj, roz savere ugta hai

    E|-----------------------------------------------------------
    B|------------2----------------------------------------------
    G|-2-2-3---3------3-2--0-0-2-2-3--2-0------------------------
    D|-------------------------------------3-3-3--3--0------2--2-
    A|-------------------------------------------------3-3-------
    a a a# a# c# a# a, g g a a a# a g, f f f f d c c e e
    Apne liye to, theek usi pal, roz dhala hai seene mein


    Aawaarapan, banjaarapan ek khala hai seene mein
    Jaane yeh kaisi aag lagi hai, is mein dhuaan na chingaari


    Hona ho is baar kahin koi khwaab jala hai seene mein
    Aawaarapan, banjaarapan, ek khala hai seene mein
    Jis raste par tapta sooraj saari raat nahin dhalta - 2
    Ishq ki aisi raahguzar ko humne chuna hai seene mein
    Aawaarapan, banjaarapan, ek khala hai seene mein
    Kahan kisi ke liye hai mumkin sab ke liye ek sa hona - 2
    Thoda sa dil mera bura hai, thoda bhala hai seene mein
    Aawaarapan, banjaarapan, ek khala hai seene mein
     
  2. Kobain

    Kobain New Member

    Thanx Dude This Is Gud...
     
  3. Kobain

    Kobain New Member

    But Ain't Original...try Being Original..thats More Fun..u Can Always Give The Site Reference...no Need To Go To All The Trouble Copy Pasting Dude
     
  4. rockboyteek

    rockboyteek New Member

    nice tabs ...............
     
  5. Subhro

    Subhro Argentina lost :"(

    cant 2 people figure out the vocal melody of a song the same way ? in fact show me how many ways u can do it unless u r playin it in a diff scale..

    even if he did copy.. wats botherin u ? .. if he wud hav copied frm u and posted it then that cud hav been an issue..

    at the end of the day.. if u dont know how 2 figure out the melody of the song.. u can always take help frm this post.. doesnt matter whether its an original or a copy frm another website..

    u dont need 2 spend a dime 2 praise some1.. it cud inspire him and make him post more songs.. (original or copy.. whtevr)

    nyways no hard feelings .... kobain :)

    and good wrk final phase.. :) but just by figurin out vocal melodies wont help u a lot.. try figurin out the chords..
     
  6. browneyegurlie

    browneyegurlie Sweet as Honey

    hey cool tabs man! liking it a lot:D
     
  7. @browneye thats one of my fav tabs i play really nice one
     
  8. Kobain

    Kobain New Member

    well...its fine..till it motivates dear...being a beginner my self...i knw what its like...but it would be cool if ethics are maintained ..and the source is specified...
     
  9. its4ashish

    its4ashish New Member

    Send the full tab of this song
     
  10. anujroy

    anujroy New Member

    anyone figured its chords ???
     
  11. jayswami

    jayswami Blue J

    i transcribed this song and even played it for a show for chandana dixit..
    ia m attaching the file. i dont even remember the melody of the song now :shock:

    here is the tif file
    it has 2 pages.. so use the correct app to view it.
    something like adobe photoshop.
    paintbrush etc will show only first page.
    http://vorlon.cwru.edu/~jayen/IGT/fax598.tif
     
  12. Subhro

    Subhro Argentina lost :"(

    whoa !! another super post by a super fan :)
     
  13. meVSme

    meVSme New Member

    hey Final phase

    Super tabs man!!! it really sounds gr8 !!
     
  14. jacko

    jacko New Member

    hey finalphase

    this song really reminded me kk mesmerising vocals

    u did a g8 job

    jacko
     

Share This Page