Jis Desh Mein Ganga Behti Hai

Discussion in 'Hindi Guitar Tabs - Submit or Request' started by anirban.d.das, Jun 25, 2005.

  1. anirban.d.das

    anirban.d.das New Member

    FEELIN KINDA PATRIOTIC AFTER SEEIN AMIT S THREAD SO THOUGHT ILL TAB OUT MY FAVE PATRIOTIC SONG



    --------1-0-0-------------------
    -1-0-1-------3-3-3-3----------------
    -----------------------------
    -----------------------------
    -----------------------------
    -----------------------------

    hothon pe sachai rehti hai

    --------1-0-0-------------------
    -1-0-1-------3-3-3-3----------------
    -----------------------------
    -----------------------------
    -----------------------------
    -----------------------------


    jahan dil mein safai rehti hai


    -2--2-2-0-2h3-3-3------
    -----------------------------
    -----------------------------
    -----------------------------
    -----------------------------
    -----------------------------

    hum us desh ke vaasi hai


    -0-3-5-1-0-0-0----------
    -----------------------------
    -----------------------------
    -----------------------------
    -----------------------------
    -----------------------------

    hum us desh ke vaasi hai



    --------1-0--------------------
    -1-0-1-------3-3-3-3----------------
    -----------------------------
    -----------------------------
    -----------------------------
    -----------------------------

    jis desh mein ganga behti hai








    -3-5h6---6-6-6---5-5-5----------------
    ------------------------------
    -----------------------------
    -----------------------------
    -----------------------------
    -----------------------------

    mehman jo hamara hota hai


    -3-5h6---6-6-6---5-5-5----------------
    ------------------------------
    -----------------------------
    -----------------------------
    -----------------------------
    -----------------------------

    woh jaan se pyara hota hai


    -----------------------------
    -3-5-6---6-6-6-6--5-5-5------
    ------------------------------
    -----------------------------
    -----------------------------
    -----------------------------

    zyada ki nahin laalach humko


    -----------------------------
    -3-5-6---6-6-6-6--5-5-5------
    ------------------------------
    -----------------------------
    -----------------------------
    -----------------------------

    thode mein guzara hota hai



    -0-1-3-3-3-3-----------
    -----------------3-3-3-3--
    ------------------------------
    ----------------------------
    -----------------------------
    ----------------------------


    thode mein guzara hota hai


    --------1-0-0-------------------
    -1-0-1-------3-3-3-3----------------
    -----------------------------
    -----------------------------
    -----------------------------
    -----------------------------





    bacchon ke liye jo dharti maa


    --------1-0-0-------------------
    -1-0-1-------3-3-3-3----------------
    -----------------------------
    -----------------------------
    -----------------------------
    -----------------------------

    sadiyon se sabhi kuch sehti hai


    -2--2-2-0-2h3-3-3------
    -----------------------------
    -----------------------------
    -----------------------------
    -----------------------------
    -----------------------------

    hum us desh ke vaasi hai


    -0-3-5-1-0-0-0----------
    -----------------------------
    -----------------------------
    -----------------------------
    -----------------------------
    -----------------------------

    hum us desh ke vaasi hai



    --------1-0--------------------
    -1-0-1-------3-3-3-3----------------
    -----------------------------
    -----------------------------
    -----------------------------
    -----------------------------

    jis desh mein ganga behti hai





    the 2nd stanza follows the same tabs

    kuch log jo zyada jaante hai
    insan ko kum pehchante hai
    yeh purab hai,purab waale
    har jaan ki keemat jaante hai
    har jaan ki keemat jaante hai


    mil julke raho aur pyar karo
    ek cheez yeh hai jo rehti hai

    hum us desh ke vaasi hai
    hum us desh ke vaasi hai
    jis desh mein ganga behti hai


    3rd stanza also same as above

    jo jisse mila seekha humne
    gairon ko bhi apnaya humne
    matlab ke liye andhe hokar
    roti ko nahin pooja humne
    roti ko nahin pooja humne

    ab hum to kya saari duniya
    saari duniya,saari duniya se kehti hai

    hum us desh ke vaasi hai
    hum us desh ke vaasi hai
    jis desh mein ganga behti hai
     
  2. amit82cse

    amit82cse Silent observeR

    cool..........
     
  3. anirban.d.das

    anirban.d.das New Member

Share This Page