jingle bell

Discussion in 'English Guitar Tabs - Submit or Request' started by babsz, Feb 25, 2004.

  1. babsz

    babsz New Member

    e----0-0-0----0-0-0-----0-3---0-----1-1-1-1-1--0-0-0-----0--
    b--------------------------1-3------------------------3-3-3--
    g------------------------------------------------------------
    d-----------------------------------------------------------
    a------------------------------------------------------------
    E------------------------------------------------------------


    e----0-0-0----0-0-0-----0-3---0-----1-1-1-1-1--0-0-0--3-3-1--
    b--------------------------1-3------------------------------1-3-----3
    g--------------------------------------------------------------------
    d-------------------------------------------------------------------
    a-------------------------------------------------------------------
    E-------------------------------------------------------------------
     
  2. shahmyel

    shahmyel GuRu DaDa

    Excellent Job..keep Up The Good Work
     
  3. amitn68

    amitn68 New Member

    good work babsz!!
     

Share This Page