Jayostute - Savarkar ....tabs requested

Discussion in 'Marathi Guitar Tabs - Submit or Request' started by XLNC, Jul 6, 2007.

  1. XLNC

    XLNC New Member

    Hello Guitar gurus...

    Can anybody tab this song please? I have kind of taken this as a challenge for us guitarists, when a relative who is a good keyboard players, bluntly denied it being a song to be played on Guitar. Is it true that this song can't be played on the guitar??? I feel it can be played, but I just lack the guitarist's ear to tab it myself, hence I request any expert to help me tab it.

    For those who want to listen it ( I would encourage every Maharashtrian to listen to it anyways)...
    http://www.geetganga.org/jayostute-te

    Thanks and Cheers,
    G
     
  2. tabmaster

    tabmaster New Member

    hi..
    i hv just joined IGT ..
    i m submitting tabs for jayostute...
    hope this will help u out..
    this is realy hard song to play on guitar..but always remember practice makes man perfect..


    जयोsस्तु ते जयोsस्तु ते
    e|-----------------------------------------------|
    B|---2-1---2-~---2-1---2-~-----------------------|
    G|-------1-----------1---------------------------|
    D|-----------------------------------------------|
    A|-----------------------------------------------|
    E|-----------------------------------------------|

    श्री मह्न्मंगले शिवास्पदे शुभदे
    e|-----1-----------------------------------------|
    B|---2---4-2-1---1-------------------------------|
    G|-------------1---1-----------------------------|
    D|-------------------3-1---1---------------------|
    A|-----------------------4-----------------------|
    E|-----------------------------------------------|


    स्वतंत्रते भगवती त्वामहम यशोयुतां वंदे यशोयुतां वंदे
    e|---------------------------------1---------------1----------|
    B|-----------------------------1-2---4---4-~---1-2---4---2-~--|
    G|-----------------1-1---1---1---------1-----1---------1------|
    D|---3-1-1-----1-3-----3--------------------------------------|
    A|---------4-4------------------------------------------------|
    E|------------------------------------------------------------|
     
  3. dj_007_2

    dj_007_2 New Member

    sahi tab ahee
     
  4. Waves of Bliss

    Waves of Bliss New Member

    chhaan.. jabardast.. thanx..
     
  5. godblessme

    godblessme New Member

    perfect!!! Thanks buddy!
     
  6. sumitjadhav

    sumitjadhav New Member

    wow nice work
     
  7. gk123

    gk123 Member

    Jayostute!

    Mitra, Please try to post chords for this song! Savarkar majhe aadarsh aahe! This Songs give lots of " Spurthi" when you listern!!
    I'm sure many people will practice this song, also please try to give suitable rhythm
     
  8. love2kalpesh

    love2kalpesh New Member

    the song starts with
    taar saptak "C"...

    sa(taar saptak ) ni(maddhya saptak) pa(madhya saptak) sa (taar saptak)
    sa(taar saptak ) ni(maddhya saptak) pa(madhya saptak) sa (taar saptak)
    sa(taar saptak ) ga(taar saptak ) re(taar saptak ) sa( taar saptak ) ni(maddhya) pa(maddhya) ni(madhhya) pa(maddhya) ga(madhya) ga(madhhya) re(maddhya) sa ga.

    try further....you will find your own notes..
     
  9. smithjon

    smithjon New Member

    tive who is a good keyboard players, bluntly denied it being a song to be played on Guitar. Is it true that this song can't be played on the guitar??? I feel it can be played, but I just lack the guitarist's ear to t
     

Share This Page