'Jashn-e-Baharaa '

Discussion in 'Hindi Guitar Tabs - Submit or Request' started by Kittu5, Mar 4, 2010.

  1. Kittu5

    Kittu5 New Member

    'Jodha Akbar- Jashan-e-bahara'



    Gtr I 'Jashn-e-Baharaa '


    Kehne ko Jashan-e-bahara hai
    Ishq yeh dekhke hairaan hai
    Phool se khusboo khafa khafa hai
    gulsan mein

    Chupa hai koi ranj fiza ki
    chilman mein

    Sare sehmein nazare hain
    Soye soye vaqt ke dhare hain
    Aur dil mein koi khoyi si baatein hain


    E-----------------------|
    B-----------------------|
    G-----------------------|
    D-11-9-11-9-7-7-7-7-9---|
    A-----------------------|
    E-----------------------|

    E-----------------------|
    B-----------------------|
    G-----------------------|
    D-7-9-11-9-7-7-7-9-7----|
    A----------------------------7--|
    E-----------------------|

    E-------------------------------|
    B----------------------------------|
    G---------------------------------|
    D---7-7-9-9-9----7-9-9-9-11--|
    A-9---------------9-------------|
    E--------------------------------|

    E---------------------------|
    B---------------------------|
    G---------------------------|
    D-9-7-----------------------|
    A--------9-7-7-----------------|
    E---------------------------|

    E-------------------------------|
    B-------------------------------|
    G-------------------------------|
    D-6-7-6-------------------9-7-6-|
    A--------7-7-7-7-7-9---9--------|
    E-------------------------------|

    E---------------------|
    B---------------------|
    G---------------------|
    D---------------------|
    A-7-7-7-7-7-5-4---4-5-|
    E---------------------|

    E-------------------------------------|
    B-------------------------------------|
    G-----------------------------------|
    D---------------7-6-9-7-6-4-2-|
    A-7-7-9-9-9-------------------|
    E--------------------------------|


    Kehne ko Jashan-e-bahara hai
    Ishq yeh dekhke hairaan hai
    Phool se khusboo khafa khafa hai
    gulsan mein

    Chupa hai koi ranj fiza ki
    chilman mein


    E-----------------------|
    B-----------------------|
    G-----------------------|
    D-11-9-11-9-7-7-7-7-9---|
    A-----------------------|
    E-----------------------|

    E-----------------------|
    B-----------------------|
    G-----------------------|
    D-7-9-11-9-7-7-7-9-7----|
    A--------------------7--|
    E-----------------------|

    E---------------------------|
    B---------------------------|
    G---------------------------|
    D---7-7-9-9-9---7-9-9-9-11--|
    A-9-----------9-------------|
    E---------------------------|

    E---------------------------|
    B---------------------------|
    G---------------------------|
    D-9-7-----------------------|
    A-----9-7-7-----------------|
    E---------------------------|
     
  2. yatinjdhv

    yatinjdhv New Member

    Thanks i was looking for it...can you also provide chords for same...
     

Share This Page