Jana Gana Mana - National Anthem Guitar Tabs

Discussion in 'Hindi Guitar Tabs - Submit or Request' started by Redalert, Aug 10, 2003.

  1. Redalert

    Redalert New Member

    Jana Gana Mana - National Anthem Guitar Tabs

    Jana Gana Mana

    --------------------------------------------------------------------------------

    E|--------0--0--0--0--0--0-0-0-0-----0--1------------|
    B|--1--3---------------------------3-----------------|
    c d e e e e e e e e e d e f
    Jana gana mana adhinayaka, jaya he


    E|---0--0--0-----------------------------------------|
    B|-------------3---3---3-0-3-1-----------------------|
    e e e d d d b d c
    Bharata bhagya vidhata

    E|-------3-3---3---3----3-3-3-3----3-3/5-1----------|
    B|---1-1---------------------------------------------|
    c c g g g g g g g g g g/a f
    Punjab Sindhu Gujarata Maratha

    E|---1-1-1-----1-1-0---------1-0---------------------|
    B|-------------------3-----3-------------------------|
    f f f f f e d d f e
    Dravida Utkala Banga

    E|----0----0------0-0-------0-3-3-5---1-1------------|
    B|--------------3-----3------------------------------|
    e e d e e d e g g a f f
    Vindhya Himachala Yamuna Ganga

    E|---0--0--0----0--0---------------------------------|
    B|--------------------3----3-0-3-1-------------------|
    e e e e e d d b d c
    Uchchala Jaladhi taranga

    E|---------0--0-----0-0------1-----------------------|
    B|--1-3--------------------3-------------------------|
    c d e e e e d f
    Tava shubha name jage

    E|--0-1---3--3----3-1-0------1-0---------------------|
    B|-------------------------3-------------------------|
    e f g g g f e d f e
    Tava shubha ashish maange

    E|--1-0--0-0-----------------------------------------|
    B|-------------3-3---0-3-1---------------------------|
    f e e e d d b d c
    Gahe tava jaya gatha

    E|--------3--3--3--3-------3-3--3-3-3--5-------------|
    B|--1-1------------------5---------------------------|
    c c g g g g e g g g g g a
    Jana gana mangala dayaka jaya he

    E|---1-1-1----1-1-----0---1-0------------------------|
    B|----------------------3----------------------------|
    f f f f f e d f e
    Bharata bhagya vidhata

    E|---------8---7-5--7----5-3-5-----------------------|
    B|----5-8--------------------------------------------|
    e g c b a b a g a
    Jaya he, jaya he, jaya he

    E|----------------0-0------0-1-----------------------|
    B|------1-1--3-3---------3---------------------------|
    c c d d e e d e f
    Jaya jaya jaya, jaya he
     
  2. FinalPhase

    FinalPhase New Member

    nice tabs
     
  3. esgallindeion

    esgallindeion Minstrel Knight

    here's another version for the tabs for Jana Gana Mana - National Anthem

    E----0--2--4-4-4-4-4--4-4-4--4-4--2--4--5----4--4-4--2--2-2---2-0-
    B-----------------------------------------------------------4-----
    G-----------------------------------------------------------------
    D-----------------------------------------------------------------
    A-----------------------------------------------------------------
    E-----------------------------------------------------------------


    E----0--7--7-7-7--7-7-7-7-7--7-6-7----5--5-5----4--4-4----2-5-4----4--4-4--2--2-2--7--7-7--5-5-
    B----------------------------------------------------------------------------------------------
    G----------------------------------------------------------------------------------------------
    D----------------------------------------------------------------------------------------------
    A----------------------------------------------------------------------------------------------
    E----------------------------------------------------------------------------------------------


    E----4--4-4--2--2-2---2-0-
    B-------------------4-----
    G-------------------------
    D-------------------------
    A-------------------------
    E-------------------------


    E----0--2--4-4-4--4-4-4--4-4-4--2-4-5--4--4-4--2--2-2---2-0-
    B-----------------------------------------------------2-----
    G-----------------------------------------------------------
    D-----------------------------------------------------------
    A-----------------------------------------------------------
    E-----------------------------------------------------------


    E----7-7-7-7-7-7-7--7-7-7--7-6-7--5--5-5--5--5-5--2-5-4----12-11-12----11-9-11----9-7-9-
    B----------------------------------------------------------------------------------
    G----------------------------------------------------------------------------------
    D----------------------------------------------------------------------------------
    A----------------------------------------------------------------------------------
    E----------------------------------------------------------------------------------

    E----0---2---4----2-h-4-/-5----------------------------------------------------
     
  4. FinalPhase

    FinalPhase New Member

    second is one smipler....i would go with that...;)
     
  5. DesiYaar

    DesiYaar New Member

    Jana Gana Mana.... India's National Anthem *stands up*

    Title: Janagana Mana.....(National Anthem)
    Artist:
    Album: India

    Instrument: 6 String Guitar

    Tabbed by: -Shyam- a.K.a Netcreep ()

    Tuning: Standard (E A D G B E)

    Hindustani 4!!!!!!!!!life buddy :)


    E|---0-2-4-4-4-4-4-4-4-4-4--4-4--2-4-5---4-4-4---2-2-2-----2-0-------||
    B|-------------------------------------------------------4-----------||
    G|-------------------------------------------------------------------||
    D|-------------------------------------------------------------------||
    A|-------------------------------------------------------------------||
    E|-------------------------------------------------------------------||

    E|---0--7--7-7--7-7-7-7--7-7-6-9-7---5--5-5-4--4-4--2-5-4------------||
    B|-------------------------------------------------------------------||
    G|-------------------------------------------------------------------||
    D|-------------------------------------------------------------------||
    A|-------------------------------------------------------------------||
    E|-------------------------------------------------------------------||

    E|---12-11-13-----11-9-11----9-7-9---0-2-4-4-4-4-4-4-4-4--2---4----5-||
    B|-------------------------------------------------------------------||
    G|-------------------------------------------------------------------||
    D|-------------------------------------------------------------------||
    A|-------------------------------------------------------------------||
    E|-------------------------------------------------------------------||
     
  6. its4ashish

    its4ashish New Member

    Thanks for this lovely tab
     
  7. hey no body was willing to play it on sunday n now we've got so many tabs of it
     
  8. d_ist_urb_ed

    d_ist_urb_ed Genuflect b*tches!

    Nice tabs, really good.
     
  9. Zion

    Zion *** Santana Ka Baap ***

    Jai Hind!!!!
     
  10. tejas_9889

    tejas_9889 New Member

    can any one post the chords of the national anthem ??
     
  11. Zion

    Zion *** Santana Ka Baap ***

  12. tejas_9889

    tejas_9889 New Member

    thnx zion .... i m rewarding u .... can u help me out with the strumming pattern i m not getting it properly
     
  13. Zion

    Zion *** Santana Ka Baap ***

    sorry dude... thats the only thing i cant explain.. ill give u the audio. if u can figure out from that...
     
  14. dexgod

    dexgod New Member

    Love it

    I like the second one better.... I played it and it sounds good. Might play this for a show Jan. 26th!
     
  15. srinath_t

    srinath_t New Member

    Indian National Anthem

    I am happy to see everyone trying hard to provide the tabs...
    Herez my contribution... Hope u all like it !!!


    E|----0--2--4-4--4-4--4-4--4-4-4---2--4--5---
    Jana gana mana adhinayaka jaya he

    E|-----4-4-4----2-2-2----0-2-0-----
    Bharata bhagya vidhata

    E|----0-7-7----7-7-----7-7-7-7---7-6-9-7---
    Punjab Sindhu Gujarata Maratha

    E|--5--5-5---4--4-4---2-5-4---
    Dravida Utkala Banga

    E|---4--4-4-----2--2-2-------7-7-7------5-5----
    Vindhya Himachala Yamuna Ganga

    E|----4--4-4--2--2-2---0-2-0-
    Uchchala Jaladhi taranga

    E-|---0--2------4-4-4-4-------2-4-5--
    Tava shubha name jage

    E|----2-3-----5-5--5-5-------2-5-4---
    Tava shubha ashish maange

    E|----4-4---4--2---2-2---0-2-0-
    Gahe tava jaya gatha

    E|-----7-7-7-7----7-7-7----7-7-7-7---6-9-7---
    Jana gana mangala dayaka jaya he

    E|--5--5-5----5--5-5----2-5-4-----------
    Bharata bhagya vidhata

    E|----12-11-12----11-9-11----9-7-9----------
    Jaya he jaya he jaya he

    E|----0-0----2-2----4-4----2-4-5-------
    Jaya jaya jaya jaya he
     

    Attached Files:

  16. Soumik Banerjee

    Soumik Banerjee New Member

    the tabs and notes provided by Redalert was superb.....this goes to everyone else: all who can play C-scale in 5th fret can play this song super easily....
     
  17. Soumik Banerjee

    Soumik Banerjee New Member


    tum jug jug jiyo mere yaar...eisa hi dete rehena....
     
  18. Geetha Amit

    Geetha Amit New Member

    Hello People... Here is my contribution :) (The hyphen(-) in between is the gap you need to provide between two notes..)
    Jana Gana Mana Adhinayak Jayahe
    GA BB BB BBB-BB ABC

    Bharat Bhagya Vidhata
    B-BB A-A AGAG

    Punjab Sindhu Gujarata Maratha
    GA DD DDDD DCEB

    Dravida Utkala Banga
    C-CC B-BB BACB

    Vindhya Himachala Yamuna Ganga
    B-BB BBBB CC DD

    Uchchala Jaladhi taranga
    B-BB AAA AGAG
     
    Last edited: May 31, 2012
  19. Sanketmm

    Sanketmm New Member

    hmm this one is nice but all are on one string makes problem dude

    but the tue is better as it it is thin than that
     
  20. SATHYA167

    SATHYA167 New Member

    Hi

    Please do visit this link

    http://www.indianguitartabs.com/search.php?searchid=156153

    You will get a version of tabs for National Anthem and also an another post on Vande Mataram with raga details.

    You will also get tabs for few hindi songs which I was playing during my early guitar learning days.

    Hope this would be useful to you..... Enjoy........ Sathya
     

Share This Page